tablaturas, partituras y acordes para guitarra
Busca por banda/artista:
 
y/o título de la canción:
A B C D E F G H I J K L M N O P Q R S T U V W X Y Z 0 1 2 3 4 5 6 7 8 9 / Top 100 tabs
Categorías
Usuarios
usuario:
Darse de alta
password:
Artistas más visitados
Publicidad
TOP acordes y tablaturas de System of a down


Estás en: Inicio > Letra S > Acordes y tablaturas de System of a down > Soldier side (hypnotize)
Soldier side (hypnotize)
de System of a down
Puntúa este acorde/tab:      
(0.7/5)
Reportar este acorde/tab
  Añadir a tus favoritos
  Imprimir
Introdução
Eb|------------------------------------------------------------|
Bb|------------------------------------------------------------|
Gb|------12----12----12----12-----10----10-----10----10--------|
Db|----0-----0-----0-----0------0-----0------0-----0-----------| 
Ab|------------------------------------------------------------|
Db|--0-----0----0-----0------0------0-----0------0-------------|

Eb|------------------------------------------------------------|
Bb|------------------------------------------------------------|
Gb|------(b9)----(b9)----(b9)----(b9)----10-----10-----10-----10-------|
Db|----0-----0-----0-----0-----0------0------0------0----------| 
Ab|------------------------------------------------------------|
Db|--0-----0-----0-----0-----0------0------0------0------------|

Eb|----------------------------------------------------------------|
Bb|----------------------------------------------------------------|
Gb|------12----15----15-----14----12-----10----10-----14----12---10|
Db|----0-----0-----0-----0------0-----0------0-----0------0----0---| 
Ab|----------------------------------------------------------------|
Db|--0------------------------------0------------------------------|

Eb|------------------------------------------------------------|
Bb|------------------------------------------------------------|
Gb|------(b9)----(b9)----(b9)----(b9)----10-----10-----10-----10-------|
Db|----0-----0-----0-----0-----0------0------0------0----------| 
Ab|------------------------------------------------------------|
Db|--0-----0-----0-----0-----0------0------0------0------------|


Verso I
Eb|------------------------------------------------------------|
Bb|------------------------------------------------------------|
Gb|------------------------------------------------------------|
Db|--5----3---2---0----2---3---5---3---2---0---2---3---5-------| 
Ab|--5----3---2---0----2---3---5---3---2---0---2---3---5-------|
Db|--5----3---2---0----2---3---5---3---2---0---2---3---5-------|
			
Verso II
Eb|------------------------------------------------------------------|
Bb|------------------------------------------------------------------|
Gb|------------------------------------------------------------------|
Db|--5-5-5-5-5-5-5-5—0-0-0-0-0-0-0-0-5-5-5-5-5-5-5-5—0-0-0-0-0-0-0-0-| 
Ab|--5-5-5-5-5-5-5-5—0-0-0-0-0-0-0-0-5-5-5-5-5-5-5-5—0-0-0-0-0-0-0-0-|
Db|--5-5-5-5-5-5-5-5—0-0-0-0-0-0-0-0-5-5-5-5-5-5-5-5—0-0-0-0-0-0-0-0-|


Refrão
Eb|------------------------------------------------------------|
Bb|------------------------------------------------------------|
Gb|------12----12----12----12-----10----10-----10----10--------|
Db|----0-----0-----0-----0------0-----0------0-----0-----------| 
Ab|------------------------------------------------------------|
Db|--0-----0----0-----0------0------0-----0------0-------------|

Eb|------------------------------------------------------------|
Bb|------------------------------------------------------------|
Gb|------(b9)----(b9)----(b9)----(b9)----10-----10-----10-----10-------|
Db|----0-----0-----0-----0-----0------0------0------0----------| 
Ab|------------------------------------------------------------|
Db|--0-----0-----0-----0-----0------0------0------0------------|

  
Base_ Solo
Eb|---------------------------------------------------------------|
Bb|---------------------------------------------------------------|
Gb|---------------------------------------------------------------|
Db|-55555555--00000000--2222222--33333--55555---77777--888888-----|
Ab|-55555555--00000000--2222222--33333--55555---77777--888888-----|
Db|-55555555--00000000--2222222--33333--55555--777777--888888-----|


Solo
Eb|6-5-6-8--6-5-6-5-6-5----5-6-5----3-5-3----3-53------------------56|
Bb|------------------------6--------6-------55------5-6-5-3-5-6-7-8--|
Gb|------------------------------------------------------------------|
Db|------------------------------------------------------------------|
Ab|------------------------------------------------------------------|
Db|------------------------------------------------------------------|


Welcome to the soldier side......
Eb|------------------------------------------------|
Bb|------------------------------------------------|
Gb|------------------------------------------------|
Db|-33333--22222--55555---00000--2222222--77777----|
Ab|-33333--22222--55555---00000--2222222--77777----|
Db|-33333--22222--55555---00000--2222222--77777----|



Final
Eb|---5----5-6-5--4---4-------6/8-8/10-8-6--5---5----4---4-----4----5|
Bb|---x----------------------------------------------x------5-------x|
Gb|---x----------------------------------------------x--------------x|
Db|---3--3---------2---2/5--5-----------------3---3--2--2--2--2--2—3-|
Ab|------------------------------------------------------------------|
Db|-0----------------------------------------------------------------|		   
AcordesyTabs.com © 2008 Acordes y Tablaturas para guitarra. Tabs and Chords for guitar. Aviso Legal - Contacto
El uso de este sitio está sujeto a la aceptación de los términos y condiciones (104 usuarios online)