tablaturas, partituras y acordes para guitarra
Busca por banda/artista:
 
y/o título de la canción:
A B C D E F G H I J K L M N O P Q R S T U V W X Y Z 0 1 2 3 4 5 6 7 8 9 / Top 100 tabs
Categorías
Usuarios
usuario:
Darse de alta
password:
Artistas más visitados
Publicidad
TOP acordes y tablaturas de Jack johnson


Flake
de Jack johnson
Puntúa este acorde/tab:      
(0.5/5)
Reportar este acorde/tab
  Añadir a tus favoritos
  Imprimir
1° verse

 G   ---------------------------------------------------------------------------------------------
 D   ---------------------------------------------------------------------------------------------
 A   -3-4-5---555-----8---------------3-1---111---3-----------------------------------------------
 E   -----------------------1---111---------------------1---111-----------------------------------
                                                                                               (4X)
  Chorus

 G   ---------------------------------------------------------------------------------------------
 D   ---------------------------------------------------------------------------------------------
 A   ----------------3---333--3------5---555--5----0---000--0----1---111--1----3---333--3---------
 E   ---1---111--1-------------------------------------------------------------------------1---111-1

 G   ---------------------------------------------------------------------------------------------
 D   ---------------------------------------------------------------------------------------------
 A   -3---333------------------------------------------------------------------------------------
 E   ---------------------------------------------------------------------------------------------
                                                                                             (2X)
   2° Verse  

 G   ---------------------------------------------------------------------------------------------
 D   ---------------------------------------------------------------------------------------------
 A   -3-4-5------8------3---1---3-----------------------------------------------------------------  
 E   ---------------1--------------1--------------------------------------------------------------
                                                                                              (2X)
 G   --------------------------------------------------------------------------------------------
 D   --------------------------------------------------------------------------------------------
 A   -3-4-5---555---8----------3--1---111--3-----------------------------------------------------
 E   ------------------1---111----------------1---111--------------------------------------------
                                                                                              (2X)
   Chorus  (3X)

   Final

 G   ---------------------------------------------------------------------------------------------
 D   ---------------------------------------------------------------------------------------------
 A   ---------------------------------------------------------------------------------------------
 E   -1---111--1---111--1---111--1---111--1---111--1---111--1---111--1---111----------------------

 G   ---------------------------------------------------------------------------------------------
 D   ---------------------------------------------------------------------------------------------
 A   ----------1---111------------3---333------------1---111----------3--33-----------------------
 E   -1---111-----------1---111------------1---111-------------1--11---------------1--------------		   
AcordesyTabs.com © 2008 Acordes y Tablaturas para guitarra. Tabs and Chords for guitar. Aviso Legal - Contacto
El uso de este sitio está sujeto a la aceptación de los términos y condiciones (28 usuarios online)