tablaturas, partituras y acordes para guitarra
Busca por banda/artista:
 
y/o título de la canción:
A B C D E F G H I J K L M N O P Q R S T U V W X Y Z 0 1 2 3 4 5 6 7 8 9 / Top 100 tabs
Categorías
Usuarios
usuario:
Darse de alta
password:
Artistas más visitados
Publicidad
TOP acordes y tablaturas de John fogerty


Proud mary
de John fogerty
Puntúa este acorde/tab:      
(0.5/5)
Reportar este acorde/tab
  Añadir a tus favoritos
  Imprimir
Intro- C A C A C A G F D

Verso

D
Left a good job in the city

Working for the man every night and day

And i never lost one minute of sleepin'

Worrying about the way things might have been


A
Big Wheels keep on turning
    Bm
Proud mary keep on burning

e | ------------------------------------ | ----------------------------------- | 
B | ------------------------------------ | ----------------------------------- | 
G | ------------------------------------ | ----------------------------------- | 
D | ------------------------------------ | ----------------------------------- | 
A | -----------5--7--7/9/7--5----------- | ----------------------------------- | 
E | ----5h7----------------------------- | ----------------------------------- | 

Refrão


D
Rollin' Rollin' Rollin' on the river

e | ------------------------------------ | 
B | ----/7------7---5---3--/5---3------- | 
G | ------------------------------------ | 
D | ----/7------7---5---4--/5---4------- | 
A | ------------------------------------ | 
E | ------------------------------------ | 

D

Cleaned alot of plates in memphis
Pumped alot of pain down in New Orleans
But I never saw the good side of the city
Till I hitched a ride on the river boat queen

A
Big wheels a-keep on turning
     Bm
Proud mary keep on burning

e | ------------------------------------ | ----------------------------------- | 
B | ------------------------------------ | ----------------------------------- | 
G | ------------------------------------ | ----------------------------------- | 
D | ------------------------------------ | ----------------------------------- | 
A | -----------5--7--7/9/7--5----------- | ----------------------------------- | 
E | ----5h7----------------------------- | ----------------------------------- | 

D
Rollin'  Rollin'Rollin on the river

e | ------------------------------------ | 
B | ----/7------7---5---3--/5---3------- | 
G | ------------------------------------ | 
D | ----/7------7---5---4--/5---4------- | 
A | ------------------------------------ | 
E | ------------------------------------ | 

Intro C A C A C A G F D

Solo D A Bm

 | --------------------------------------------------------------------- | 
 | -----------7--7--8--7--7--8--7--8--7--8--7--8--7--8--7--------------- | 
 | -----------7--7--7--7--7--7--7--7--7--7--7--7--7--7--7--------------- | 
 | -----7--(b9)-7--7--(b9)-7--7--(b9)-7--(b9)-7--(b9)-7--(b9)-7--(b9)-7------7-------- | 
 | --(b9)---------------------------------------------------9p7---------- | 
 | --------------------------------------------------------------------- | 

 | --------------------------------------------------------------------- | 
 | --/10-10-10-----------------------7--7--8--7--7--8--7--7--8--7------- | 
 | --/11--------(b9)-7-----------------7--7--7--7--7--7--7--7--7--7------- | 
 | -------------------(b9)-7-----7--(b9)-7--7--(b9)-7--7--(b9)-7--7--(b9)-7------- | 
 | -------------------------(b9)----------------------------------------- | 
 | --------------------------------------------------------------------- | 

 | --------------------------------------------------------------------- | 
 | --7--7--------------------------------------------------------------- | 
 | --7--7------------------------4--6p5h6--6-7--6p5h6--6-4--6p5h6------- | 
 | --7--7---------------7p6h7--7---------------------------------------- | 
 | --------(b9)-(b9)-5--5--------------------------------------------------- | 
 | --------------------------------------------------------------------- | 

 | --------------------------------------------------------------------- | 
 | --------------------------------------------------------------------- | 
 | -----------6--7p6h7--7-(b9)-7p6h7--7-6--7p6h7--7----------------------- | 
 | --9p8h(b9)-(b9)---------------------------------------------------------- | 
 | --------------------------------------------------------------------- | 
 | --------------------------------------------------------------------- | 

D
Rollin'  Rollin'Rollin on the river

e | ------------------------------------ | 
B | ----/7------7---5---3--/5---3------- | 
G | ------------------------------------ | 
D | ----/7------7---5---4--/5---4------- | 
A | ------------------------------------ | 
E | ------------------------------------ | 

Intro C A C A C A G F D

D

If you come down to the river, 
Bet you're gonna find some people who live,
You don't have to worry, cause you have no money,
People on the river are happy to give.

A                         
Big wheel keep on turnin,
     Bm
Proud  Mary keep on burnin,

e | ------------------------------------ | ----------------------------------- | 
B | ------------------------------------ | ----------------------------------- | 
G | ------------------------------------ | ----------------------------------- | 
D | ------------------------------------ | ----------------------------------- | 
A | -----------5--7--7/9/7--5----------- | ----------------------------------- | 
E | ----5h7----------------------------- | ----------------------------------- | 


D
Rollin'  Rollin'Rollin on the river

e | ------------------------------------ | 
B | ----/7------7---5---3--/5---3------- | 
G | ------------------------------------ | 
D | ----/7------7---5---4--/5---4------- | 
A | ------------------------------------ | 
E | ------------------------------------ |  		   
AcordesyTabs.com © 2008 Acordes y Tablaturas para guitarra. Tabs and Chords for guitar. Aviso Legal - Contacto
El uso de este sitio está sujeto a la aceptación de los términos y condiciones (53 usuarios online)