tablaturas, partituras y acordes para guitarra
Busca por banda/artista:
 
y/o título de la canción:
A B C D E F G H I J K L M N O P Q R S T U V W X Y Z 0 1 2 3 4 5 6 7 8 9 / Top 100 tabs
Categorías
Usuarios
usuario:
Darse de alta
password:
Artistas más visitados
Publicidad
TOP acordes y tablaturas de Nirvana


Estás en: Inicio > Letra N > Acordes y tablaturas de Nirvana > Here She Comes Now
Here She Comes Now
de Nirvana
Puntúa este acorde/tab:      
(0.4/5)
Reportar este acorde/tab
  Añadir a tus favoritos
  Imprimir
e|-----------------
B|--7---7--12-12---
G|-7-7-7-11-11-----
D|0----------------
A|-----------------
E|-----------------

(Let The open D ring out)

e|-----------------------------------
B|----7-----7-----------12-----10-10-
G|-7-7-7-7-7-11-11-11-11-9-9-9-9-----
D|0----------------------------------
A|-----------------------------------
E|-----------------------------------

CHORUS
D-x577xx
C-x355xx
B5-x133xx

Order- D C D C B5


Yea, I'm just submitting a revision of Steve's tablature...
(steve2206@AOL.com)or something like that. So I can't be given the 
credit. But his version was somewhat confusing to me. So, enjoy.
(This is my first tab BTW, so if it's wrong...Too bad
		   
AcordesyTabs.com © 2008 Acordes y Tablaturas para guitarra. Tabs and Chords for guitar. Aviso Legal - Contacto
El uso de este sitio está sujeto a la aceptación de los términos y condiciones (21 usuarios online)