tablaturas, partituras y acordes para guitarra
Busca por banda/artista:
 
y/o título de la canción:
A B C D E F G H I J K L M N O P Q R S T U V W X Y Z 0 1 2 3 4 5 6 7 8 9 / Top 100 tabs
Categorías
Usuarios
usuario:
Darse de alta
password:
Artistas más visitados
Publicidad
TOP acordes y tablaturas de System of a down


Spiders
de System of a down
Puntúa este acorde/tab:      
(0.4/5)
Reportar este acorde/tab
  Añadir a tus favoritos
  Imprimir

This is pretty close to the real thing

INTRO
-------------------------------------------------------
-------------------------------------------------------
-------------------------------------------------------
-------------------------------------------------------
---4-4-2𦌾----44--2-2-2---5--4-7-5-4-5-4-4-22-2----
-0--0-0-0-0-0--0-00--0-0-0-0--0-0-0-0-0-0-00-0-0-0-0-
PLAY THIS 3 TIMES
	CHORUS
------------------------------------
------------------------------------
------------------------------------
-99999999999999999999......
-99999999999999999999......listen to see ho many times to play 
-77777777777777777777......

-----------------------------
-----------------------------
-----------------------------  
-----------------------------
--5-4-7-5-4-5-4-4-2-2-2------
-0-------------0---------0--
PLAY THIS 1 TIME

-----------------------
-----------------------
-----------------------
-9999999999-77777-6666-
-9999999999-77777-6666-
-7777777777-55555-4444-
LISTEN TO SEE HOW MANY TIMES TO PLAY THE FIRST PART , BUT PLAY THE 
REST AS SHOWN-ALSO LISTEN FOR TIMEING

NOW PLAY THE INTRO, ONLY PLAY THE FIRST PART 2 TIMES FIRST
	SOLO
-------------------------
-------------------------
-13X16-14X8-17X8---------
-------------------------
-------------------------
-------------------------

THIS PROBABLY ISNT RIGHT SO LISTEN FOR IT

---------------------------------------------------------
---16-16-16-16---16-16-16-16---17-17-17-17---15-15-15-15-
-13-13-13-1313-13-13-1314-14-14-1412-12-12-12---------
---------------------------------------------------------
DO TWICE AND GO TO CHORUS-PLAY SECOND PART 2TIMES
THEN PLAY THE FIRST PART OF THE INTRO 2 TIMES
THEN PLAY INTRO
THIS HAS BEEN THE TABALATURE WORKS OF MATT SORIA

		   
AcordesyTabs.com © 2008 Acordes y Tablaturas para guitarra. Tabs and Chords for guitar. Aviso Legal - Contacto
El uso de este sitio está sujeto a la aceptación de los términos y condiciones (24 usuarios online)