tablaturas, partituras y acordes para guitarra
Busca por banda/artista:
 
y/o título de la canción:
A B C D E F G H I J K L M N O P Q R S T U V W X Y Z 0 1 2 3 4 5 6 7 8 9 / Top 100 tabs
Categorías
Usuarios
usuario:
Darse de alta
password:
Artistas más visitados
Publicidad
TOP acordes y tablaturas de Nirvana


Estás en: Inicio > Letra N > Acordes y tablaturas de Nirvana > In Bloom Solo
In Bloom Solo
de Nirvana
Puntúa este acorde/tab:      
(0.3/5)
Reportar este acorde/tab
  Añadir a tus favoritos
  Imprimir
Song Title: In bloom
Artist: Nirvana
Album: Nevermind
Tabbed section: Guitar solo
Tabbed by: Rock Genie

This is an excellent guitar solo from a classic nirvana song, I don't know
whether this was planned or whether it was an improv, but either way it's
good.
There are so many tabs of this around, i've tried them all and not one sounds
right, some don't even come close. This is my first tab ever (i could have
Chosen something easier..lol) and i'm 99% sure this right. And I managed to 
work it out suprisingly quickly and easily, which is why I don't understand 
why there are so many clearly wrong tabs out there.
It takes a bit of practice to get it to sound like the cd, but I doubt kurt
Cobain could have reproduced it exactly.

The secret to this is to bend strings when ever you can not just when there's
Clearly a bend.
On the first note strike the g string louder than the other two and pull up 
The whammy bar hard to raise the pitch. 



e|-9b-~~~~~~~~~~~~~~~~-----------------------------------------------------|
b|-9b-~~~~~~~~~-9b-~~~-----------------------------------------------------|
G|-8b-~~~~~~~~~~~~~8b~-6--8-6-8-9~-8-6-8-8--6-8-9~-6-8-6-8----6-8-8-6-8-(8)|
d|-------------------------------------------------------------------------|
a|-------------------------------------------------------------------------|
E|-------------------------------------------------------------------------|
 Tremolo up............


|-11-~~--------------------------------------|
|-11-~~--11/6-6-8-6-8-6-8-9-6-8-9/11b----11b-|
|--------------------------------------------|
|--------------------------------------------|
|--------------------------------------------|
|--------------------------------------------|

|-11b~~-------------------------------------|
|-11b~~-9---9-9-8-8-7-7-6-6-5-5-4-4-3-3-2-2-|
|-------------------------------------------|
|-------------------------------------------|
|-------------------------------------------|
|-------------------------------------------|

Any comments, suggestions, fan mail, death threats please send them elsewhere.

"It's better to burn out than fade away"
"Peace, love, empathy"
- Kurt Cobain
		   
AcordesyTabs.com © 2008 Acordes y Tablaturas para guitarra. Tabs and Chords for guitar. Aviso Legal - Contacto
El uso de este sitio está sujeto a la aceptación de los términos y condiciones (20 usuarios online)