tablaturas, partituras y acordes para guitarra
Busca por banda/artista:
 
y/o título de la canción:
A B C D E F G H I J K L M N O P Q R S T U V W X Y Z 0 1 2 3 4 5 6 7 8 9 / Top 100 tabs
Categorías
Usuarios
usuario:
Darse de alta
password:
Artistas más visitados
Publicidad
TOP acordes y tablaturas de Green day


Estás en: Inicio > Letra G > Acordes y tablaturas de Green day > Give me novocaine
Give me novocaine
de Green day
Puntúa este acorde/tab:      
(1/5)
Reportar este acorde/tab
  Añadir a tus favoritos
  Imprimir
Intro: A F#m Bm E
 
A                       F#m   
Take away the sensation inside  
Bm                          E  
Bitter sweet migraine in my head  
A                                       F#m  
It's like a throbbing tooth ache of the mind  
Bm                       E  
I can't take this feeling anymore  
  

D                           A  
Drain the pressure from the swelling  
D                  A      
The sensations overwhelming  
D                            F#m          
Give me a kiss goodnight and everything will be alright  
Bm                         E  
tell me that I won't feel a thing  
               A F#m Bm E         
So give me Novacaine  
  

A                      F#m  
Out of body and out of mind  
Bm                        E  
Kiss the demons out of my dreams  
A                        F#m  
I get the funny feeling, that's alright  
Bm                         E  
Jimmy says it's better than air  
   
I'll tell you why  
  

D                           A  
Drain the pressure from the swelling  
D                  A      
The sensations overwhelming  
D                            F#m          
Give me a kiss goodnight and everything will be alright  
Bm                         E  
tell me that I won't feel a thing  
               A          
So give me Novacaine  
  
Oh Novacaine  
                                                                                   
e | ---------------------------------------------------------------- |                          
B | -------------------(b9)10-10-(b9)-------------------14-------------- |                           
G | --------------11------------11------------14-------14--------14- |  
D | --------11-11----11-----------------14-14----14--------14-14---- |  x3   
A | -----(b9)-----------------------/12------------------------------ |  
E | ---------------------------------------------------------------- |  
 
 
e | ---------------------------------------------------------------- |  
B | ----------3---3--------------(b9)(b9)(b9)(b9)-10101010-1212121212121212- |  
G | ------4-----4---4------------(b9)(b9)(b9)(b9)-(b9)(b9)(b9)(b9)-(b9)(b9)(b9)(b9)(b9)(b9)(b9)(b9)- |  
D | ----4---4---------4--------------------------------------------- |  
A | -/2------------------------------------------------------------- |  
E | ---------------------------------------------------------------- |  
 
D                           A  
Drain the pressure from the swelling  
D                  A      
The sensations overwhelming  
D                            F#m          
Give me a kiss goodnight and everything will be alright  
Bm                         E  
Tell me that I won?t feel a thing  
               A F#m Bm E A        
So give me Novacaine 		   
AcordesyTabs.com © 2008 Acordes y Tablaturas para guitarra. Tabs and Chords for guitar. Aviso Legal - Contacto
El uso de este sitio está sujeto a la aceptación de los términos y condiciones (23 usuarios online)