tablaturas, partituras y acordes para guitarra
Busca por banda/artista:
 
y/o título de la canción:
A B C D E F G H I J K L M N O P Q R S T U V W X Y Z 0 1 2 3 4 5 6 7 8 9 / Top 100 tabs
Categorías
Usuarios
usuario:
Darse de alta
password:
Artistas más visitados
Publicidad
TOP acordes y tablaturas de Angels and airwaves


It hurts
de Angels and airwaves
Puntúa este acorde/tab:      
(0.2/5)
Reportar este acorde/tab
  Añadir a tus favoritos
  Imprimir
INTRO:
(solinho)

e -(b9)--
b --10-
g -----   (8x)
d -----
a -----
e -----

e|---5---5----------------------------------
b|-------------6---6-----5---5------5---5---
g|-6---6-----7---7-----6---6-----4----4-----
d|------------------------------------------  (2x)
a|------------------------------------------
e|------------------------------------------

e|-------------
b|-------------
g|-------------
d|-7-7-77------  (nessa parte toca e dá uma paradinha)
a|-7-7-77------
e|-5-5-55------

Continua o riff ...

e|---------------------------------------
b|---------------------------------------
g|----------------------------77777777---   
d|-77777777-9999999(b9)44444444-77777777---       "it hurts" (8x)
a|-77777777-9999999(b9)44444444-55555555---
e|-55555555-77777777-22222222------------


(solinho do verso, +- assim)

e|----(b9)---7---7----7----7--(b9)-(b9)--------7--
b|-10---10-------10---10---------10--10-----


Is this what you want?
Cause everybody acts without a clue
Every little kiss and grin you gave was just a little bullshit I saw throught
The alcohol I scented with your breath
You're always open up to just be used
I'm waiting for excuses that decieve
I'll meet you in the back to see them through

(interlude)
e|------------------------------------------------------
b|------------------------------------------------------
g|-------7-7-7---------(b9)(b9)(b9)--------7-7-7---------(b9)(b9)7  
d|7-7-7--7-7-7--7-7-7--(b9)(b9)(b9)-4-4-4--7-7-7--7-7-7--(b9)(b9)7     
a|7-7-7--5-5-5--5-7-7--7-7-7--4-4-4--5-5-5--7-7-7--7-7-7
e|5-5-5---------5-5-5---------2-2-2---------5-5-5-------


How did I let her inside?
We're dripping in sweat and feeling alright
Her lips were the last thing touched tonight
Your best friend is not your girlfriend.

(solinho do verso)

Are you out of your mind?
You've dug yourself into a liar's hole
You made a little spark to live inside
It's now a fucking fire out of control
And when the morning comes you'll act surprised
And when the word gets out it will get old
And every day you'll try to live your life
And every little scandle will unfold

(interlude)

How did I let her inside?
We're dripping in sweat and feeling alright
Her lips were the last thing touched tonight
Your best friend is not your girlfriend.

(riff) "it's hurts..."

(solinho do começo...)

Dream you want it
Dream I want too
Dream

(interlude)

How did I let her inside?
We're dripping in sweat and feeling alright
Her lips were the last thing touched tonight
Your best friend is not your girlfriend.

(Riff)

It hurts (30x)
Your best friend is not your girlfriend!

Vlw galera...		   
AcordesyTabs.com © 2008 Acordes y Tablaturas para guitarra. Tabs and Chords for guitar. Aviso Legal - Contacto
El uso de este sitio está sujeto a la aceptación de los términos y condiciones (27 usuarios online)