tablaturas, partituras y acordes para guitarra
Busca por banda/artista:
 
y/o título de la canción:
A B C D E F G H I J K L M N O P Q R S T U V W X Y Z 0 1 2 3 4 5 6 7 8 9 / Top 100 tabs
Categorías
Usuarios
usuario:
Darse de alta
password:
Artistas más visitados
Publicidad
TOP acordes y tablaturas de Dream theater


Estás en: Inicio > Letra D > Acordes y tablaturas de Dream theater > The test that stumped them all
The test that stumped them all
de Dream theater
Puntúa este acorde/tab:      
(0.1/5)
Reportar este acorde/tab
  Añadir a tus favoritos
  Imprimir
Intro
  Q=163
 7/8
  Gtr I
   S  S  S  S  S  S  S  S  S  S  S  S  S  S
|-19p17-------21p17-------19p17----------17-|
|-------18p17-------18p17-------18-17-18----|
|-------------------------------------------|
|-------------------------------------------|
|-------------------------------------------|
|-------------------------------------------|


 6/8
   S  S  S  S  S  S  S  S  S  S  S  S
|-19p17-------21p17-------19p17-------|
|-------18p17-------18p17-------18p17-|
|-------------------------------------|
|-------------------------------------|
|-------------------------------------|
|-------------------------------------|


 7/8                           6/8
  S S S S S S S S S S S S S S   S S S S S S S S S S S S
|-7p5-----9p5-----7p5-------5-|-7p5-----9p5-----7p5-----|
|-----6p5-----6p5-----6-5-6---|-----6p5-----6p5-----6p5-|
|-----------------------------|-------------------------|
|-----------------------------|-------------------------|
|-----------------------------|-------------------------|
|-----------------------------|-------------------------|


 7/8                            6/8
  S S S S  S S S S S S S S S S   S S S S  S S S S S S S S
|------------------------------|--------------------------|
|------------------------------|--------------------------|
|------------------------------|--------------------------|
|-9p7-----11p7-----9p7-------7-|-9p7-----11p7-----9p7-----|
|-----8p7------8p7-----8-7-8---|-----7h8------8p7-----8p7-|
|------------------------------|--------------------------|


 7/8                             6/8
  PM   PM   PM  PM  PM  PM         PM   PM   PM  PM  PM  PM
  s  S s S  s S s S s S s S S S    s  S s S  s S s S s S s S
|-------------------------------|----------------------------|
|-------------------------------|----------------------------|
|-------------------------------|----------------------------|
|-9p=7-----11p7-----9p7-------7-|--9p=7-----11p7-----9p7-----|
|------8p7------8p7-----8-7-8---|-------7h8------8p7-----8p7-|
|-------------------------------|----------------------------|
|
| Gtr II
| H..                             +H.
|-------------------------------|----------------------------|
|-------------------------------|----------------------------|
|-------------------------------|----------------------------|
|-2-----------------------------|-(2)------------------------|
|-2-----------------------------|-(2)------------------------|
|-0-----------------------------|-(0)------------------------|


 7/8                            6/8
  PM  PM   PM  PM  PM  PM        PM  PM   PM  PM  PM  PM
  s S s S  s S s S s S s S S S   s S s S  s S s S s S s S
|------------------------------|--------------------------|
|------------------------------|--------------------------|
|------------------------------|--------------------------|
|-9p7-----11p7-----9p7-------7-|-9p7-----11p7-----9p7-----|
|-----8p7------8p7-----8p7h8---|-----7h8------8p7-----8p7-|
|------------------------------|--------------------------|
|
| S S H.                         H.
|------------------------------|--------------------------|
|------------------------------|--------------------------|
|------------------------------|--------------------------|
|-7----------------------------|--------------------------|
|-5----------------------------|--------------------------|
|-5----------------------------|--------------------------|


 7/8                             6/8
  PM   PM   PM  PM  PM  PM         PM   PM   PM  PM  PM  PM
  s  S s S  s S s S s S s S S S    s  S s S  s S s S s S s S
|-------------------------------|----------------------------|
|-------------------------------|----------------------------|
|-------------------------------|----------------------------|
|-9p=7-----11p7-----9p7-------7-|--9p=7-----11p7-----9p7-----|
|------8p7------8p7-----8-7-8---|-------7h8------8p7-----8p7-|
|-------------------------------|----------------------------|
|
| ~~~
| H..                             +H.
|-------------------------------|----------------------------|
|-------------------------------|----------------------------|
|-------------------------------|----------------------------|
|-------------------------------|----------------------------|
|-4-----------------------------|-(4)------------------------|
|-------------------------------|----------------------------|


 7/8                            6/8
  PM  PM   PM  PM  PM  PM        PM  PM   PM  PM  PM  PM
  s S s S  s S s S s S s S S S   s S s S  s S s S s S s S
|------------------------------|--------------------------|
|------------------------------|--------------------------|
|------------------------------|--------------------------|
|-9p7-----11p7-----9p7-------7-|-9p7-----11p7-----9p7-----|
|-----8p7------8p7-----8-7-8---|-----7h8------8p7-----8p7-|
|------------------------------|--------------------------|
|
| S S H.                         H.
|------------------------------|--------------------------|
|------------------------------|--------------------------|
|------------------------------|--------------------------|
|------------------------------|--------------------------|
|-5----------------------------|--------------------------|
|------------------------------|--------------------------|


 7/8                             6/8
  PM   PM   PM  PM  PM  PM         PM   PM   PM  PM  PM  PM
  s  S s S  s S s S s S s S S S    s  S s S  s S s S s S s S
|-------------------------------|----------------------------|
|-------------------------------|----------------------------|
|-------------------------------|----------------------------|
|-9p=7-----11p7-----9p7-------7-|--9p=7-----11p7-----9p7-----|
|------8p7------8p7-----8-7-8---|-------7h8------8p7-----8p7-|
|-------------------------------|----------------------------|
|
| H..                             +H.
|-------------------------------|----------------------------|
|-------------------------------|----------------------------|
|-------------------------------|----------------------------|
|-2-----------------------------|-(2)------------------------|
|-2-----------------------------|-(2)------------------------|
|-0-----------------------------|-(0)------------------------|


 7/8                            6/8
  PM  PM   PM  PM  PM  PM        PM  PM   PM  PM  PM  PM
  s S s S  s S s S s S s S S S   s S s S  s S s S s S s S
|------------------------------|--------------------------|
|------------------------------|--------------------------|
|------------------------------|--------------------------|
|-9p7-----11p7-----9p7-------7-|-9p7-----11p7-----9p7-----|
|-----8p7------8p7-----8-7-8---|-----7h8------8p7-----8p7-|
|------------------------------|--------------------------|
|
| S S H.                         H.		   
AcordesyTabs.com © 2008 Acordes y Tablaturas para guitarra. Tabs and Chords for guitar. Aviso Legal - Contacto
El uso de este sitio está sujeto a la aceptación de los términos y condiciones (28 usuarios online)