tablaturas, partituras y acordes para guitarra
Busca por banda/artista:
 
y/o título de la canción:
A B C D E F G H I J K L M N O P Q R S T U V W X Y Z 0 1 2 3 4 5 6 7 8 9 / Top 100 tabs
Categorías
Usuarios
usuario:
Darse de alta
password:
Artistas más visitados
Publicidad
TOP acordes y tablaturas de Temas de filmes


Tema do borat
de Temas de filmes
Puntúa este acorde/tab:      
(0.6/5)
Reportar este acorde/tab
  Añadir a tus favoritos
  Imprimir
Jagshemash!!!

Esta musiquinha é o tema de abertura do seriado do Borat e também aparece no começo do filme,
se não me engano... I hope you like! It is nice! I like!!!

Please, you look:

Ritmo: música folclórica cazaque
Tom: Dm 
Afinação: standard


e|------6-6-5-6-5-------------------------5---5------------------------------------------------
B|----------------8---6-8-6-----------------8---8-6-------------------8-8-6-8-6----------------
G|---7----------------------8-~8------5--------------7-8-7-5-~7-----------------8-7-5-7-5------
D|-----------------------------------------------------------------8----------------------8-~7-
A|---------------------------------------------------------------------------------------------
E|---------------------------------------------------------------------------------------------

                                     ||Para finalizar, basta trocar o riff anterior por este:                               
e|-----------------------------------||--------------------------------------------------------
B|---------8-7-----------------------||---------8-7--------------------------------------------
G|-------7-----8-7-5---5---5-~7------||-------7-----8-7-5---5----------------------------------
D|---7-8-------------8---8-----------||---7-8-------------8---8-7-~5---------------------------
A|-----------------------------------||--------------------------------------------------------
E|-----------------------------------||--------------------------------------------------------


Esta música é absurdamente difícil de tocar... (pause) Not!!!
Hy five!!!		   
AcordesyTabs.com © 2008 Acordes y Tablaturas para guitarra. Tabs and Chords for guitar. Aviso Legal - Contacto
El uso de este sitio está sujeto a la aceptación de los términos y condiciones (10 usuarios online)