tablaturas, partituras y acordes para guitarra
Busca por banda/artista:
 
y/o título de la canción:
A B C D E F G H I J K L M N O P Q R S T U V W X Y Z 0 1 2 3 4 5 6 7 8 9 / Top 100 tabs
Categorías
Usuarios
usuario:
Darse de alta
password:
Artistas más visitados
Publicidad
TOP acordes y tablaturas de Europe


Estás en: Inicio > Letra E > Acordes y tablaturas de Europe > Little bit of lovin'
Little bit of lovin'
de Europe
Puntúa este acorde/tab:      
(0.7/5)
Reportar este acorde/tab
  Añadir a tus favoritos
  Imprimir
Cool song, although the riff is pretty obvious. Anyway it rocks pretty 
good. 
Enjoy!

Intro:
    E     A         E
e |-------------------------|
B |-------------------------|
G |-------2--2-2------------|
D |-2-2---2--2-2----2-------|
A |-2-2---0--0-0----2-------|
E |-0-0-3--------3--0-------|

Chorus:
    E       A            E   C   D        E   D  A
                                         <----*----->
e |-------------------------------------------------|   * The first time
B |-------------------------------------------3-----|   this riff comes up
G |---------2--2-2-----------5---7------------2--2--|   play this 1st time.
D |-2-------2--2-2-------2---5---7------2-2-2-0--2--|   2nd time play the
A |-2----2--0--0-0--2----2---3---5-0h-2---2-2----0--|   lick below.
E |-0--3--------------3--0----------------0-0-------|

                                 A
  <------2nd time, intro only------->
e |---------------------------------|
B |---------------------------------|
G |---------0--------------------2--|
D |-2-2-0-----2-0---2-0----------2--|
A |-------2-------2----2-0-------0--|
E |------------------------3-2-0----|



Verse:
     E D E              E D E   D    D/C#  D/G     E D E
                               <----------2nd time 2 x---->
                                                 <--1st--->
e |-------------------------------------------------------|
B |--(b9)7-(b9)-------------(b9)7-(b9)-----2-----2-----2---(b9)7-(b9)-|
G |--(b9)7-(b9)-------------(b9)7-(b9)----3----3-----3-----(b9)7-(b9)-|
D |--7-5-7-------0h-2---7-5-7---0------------------7-5-7--|
A |---------0h-2---------------------4--------------------|
E |----------------------------------------3-----0--------|

    B
   <------2nd----->
e |----------------|
B |----------------|
G |-4-4-4----------|
D |-4-4-4----------|
A |-2-2-2----------|
E |----------------|


Bridge:

E    D                             A               B
Ohh, You gotta give me some lovin',yeah. ...
good... 

Chords:
-------
E 0221xx or 022xxx or x799xx
A x0222x or x022xx
D xx023x or x577xx
C x355xx
B x244xx
D/C# x4032x
D/G  3x032x
open position E xxx450 and D xx0232


Little Bit Of Lovin'
--------------------

Ohh, gotta give me ....

[Riff 1]

[/w chorus riff]
(We sing it)
Woah-oh, woah-oh...

[/w riff 2]
Just like a gypsy I come ...		   
AcordesyTabs.com © 2008 Acordes y Tablaturas para guitarra. Tabs and Chords for guitar. Aviso Legal - Contacto
El uso de este sitio está sujeto a la aceptación de los términos y condiciones (20 usuarios online)