tablaturas, partituras y acordes para guitarra
Busca por banda/artista:
 
y/o título de la canción:
A B C D E F G H I J K L M N O P Q R S T U V W X Y Z 0 1 2 3 4 5 6 7 8 9 / Top 100 tabs
Categorías
Usuarios
usuario:
Darse de alta
password:
Artistas más visitados
Publicidad
TOP acordes y tablaturas de Hal ketchum


She is
de Hal ketchum
Puntúa este acorde/tab:      
(0.7/5)
Reportar este acorde/tab
  Añadir a tus favoritos
  Imprimir
Intro: D  G  A  D  G  A 
 
D           G                   
She is, the silver voice of water falling, 
D           A 
 She is the sun. 
D           G  
She is, the golden light that lies beside me,  
D             A 
 When day is done.  
 
 
Bm             A 
  Every time I fall,  
Bm                       A 
  She just smiles that's all.  
D      G     A        D    G   A 
She is, everything to me. 
 
  
D           G 
She is, the reason God made moonlit gardens,  
D          A 
 She is my friend. 
D           G      
She is, the only reason I come running,  
D          A 
 Time and again.  
 
 
Bm             A 
  Every time I fall, 
Bm                       A 
  She just smiles that's all.  
D     G     A        D     
She is everything to me. 
 
 
Bm                       D 
 Sands of time may tumble into the sea, 
Bm                      A   
 I don't care as long as she's loving me. 
D      G     A        D 
She is, everything to me. 
 
 
D  G  A  D  G  A 
INSTRUMENTAL 
 
 
Bm             A 
  Every time I fall, 
Bm                       A 
  She just smiles that's all. 
D     G     A          D 
She is everything to me, 
G     A         D G     A        D  G  A  D  G  A    
 Everything to me, everything to me.  
 
 
D                           
Shine a little light on, Shine a little light on, 
G                        A                       D   G  A 
Shine a little light on, Shine a little light on me. 
D                     
Shine a little light on, Shine a little light on, 
G                        A                       D 
Shine a little light on, Shine a little light on me. 
 
 
 
********************************************************************************************* 
 
bh   =   bend & hold                             ~   =   hold note 
 
r    =   release bend                            pbr =   pre-bend & release 
 
p    =   pulloff                                    =   slide down 
 
br   =   bend & release                          h   =   hammer-on 
 
/    =   slide up 
 
********************************************************************************************* 
 
 
LEAD SOLO 
 
 
   D                     G        A        D                                 G 
 
E | --5-------------------------------------------------------10-10----10----10-10----10----- 
B | ---5bh~r-5pbr-5pbr-5pbr-5pbr-p3-5------------------------10-10-10-10h12-10-10h12-10h12-- 
G | ---------------------------------------------7-7---7-9/11-------11----------------------- 
D | ---------------------------------------------7-7h(b9)7------------------------------------- 
A | ------------------------------------7br-5-7h(b9)(b9)----------------------------------------- 
E | ----------------------------------------------------------------------------------------- 
 
   A              Bm  
 
E | --10/12-10----7------------ |  
B | -------------7-7-10bh~~~--- |  
G | -----------9b-------------- |  
D | --------------------------- |  
A | --------------------------- |  
E | --------------------------- |  		   
AcordesyTabs.com © 2008 Acordes y Tablaturas para guitarra. Tabs and Chords for guitar. Aviso Legal - Contacto
El uso de este sitio está sujeto a la aceptación de los términos y condiciones (41 usuarios online)