tablaturas, partituras y acordes para guitarra
Busca por banda/artista:
 
y/o título de la canción:
A B C D E F G H I J K L M N O P Q R S T U V W X Y Z 0 1 2 3 4 5 6 7 8 9 / Top 100 tabs
Categorías
Usuarios
usuario:
Darse de alta
password:
Artistas más visitados
Publicidad
TOP acordes y tablaturas de Kiss
:: Beth - Kiss


Estás en: Inicio > Letra K > Acordes y tablaturas de Kiss > Betrayed
Betrayed
de Kiss
Puntúa este acorde/tab:      
(0.5/5)
Reportar este acorde/tab
  Añadir a tus favoritos
  Imprimir
Standard tuning

Comments: Just two things here. First, at the very end of the solo. I
have no idea what the correct notes are, all I hear is a barrage of
notes underneath a wall off noise. I¥ve put down a little something that
Bruce usually plays here and there. The final phrase is correct. Second,
the same thing happens during the outro solo. I have about a snowball's
chance in hell of transcribing about halfway through so I just let it be.
(I wish they would have remastered this album along with the others. It
is by far the worst-sounding KISS album ever. Gene and Paul are not
producers, that's for sure.)

Key:
/    = slide up
    = slide down
b    = bend (whole step)
b^   = bend (1/2 step)
b^^  = bend (1 1/2 steps)
pb   = pre-bend
r    = release-bend
t    = tap with righthand finger
h    = hammer-on
p    = pull-off
~    = Vibrato
*    = Natural Harmonic
#(#) = Trill
**   = Artificial Harmonic
x    = Dead notes (no pitch)
P.M. = Palm mute (- -> underneath indicates which notes)
()  = Dive war
(/)  = Release war
Tp   = Tap wplectrum

Rhythm Fig. 1

E|--------------------------------------------------|
B|--------------------------------------------------|
G|--2----2----2--2--2-------2---------2-------------|
D|--2----2----2--2--2-------2---------2----3--------|
A|--0----0----0--0--0-------0----3~---0----3--------|
E|---------------------3~------------------1--------|

E|--------------------------------------------------|
B|--------------------------------------------------|
G|-----------------3---------3---------2------------|
D|--3--------------3----3----3----3----2------------|
A|--3--------------1----3----1----3----0------------|
E|--1-------------------1---------1-----------------|

Rhythm Fig. 2

E|--------------------------------------------------|
B|--------------------------------------------------|
G|--2----2----2--2--2-------2---------2-------------|
D|--2----2----2--2--2-------2---------2-------------|
A|--0----0----0--0--0-------0----3~---0-------------|
E|---------------------3~---------------------------|

E|--------------------------------------------------|
B|--------------------------3-----------------------|
G|----------------5---------0-----------------------|
D|--3-------------5---------0-----------------------|
A|--3-------------3---------x-----------------------|
E|--1-----------------------3-----------------------|

Rhythm Fig. 3

E|--------------------------------------------------|
B|--------------------------------------------------|
G|--2----2----2--2--2-------2---------2-------------|
D|--2----2----2--2--2-------2---------2-------------|
A|--0----0----0--0--0-------0----3~---0-------------|
E|---------------------3~---------------------------|

E|--------------------------------------------------|
B|---------------------------------3----------------|
G|---------------------5--5--5--5--0----------------|
D|--3------------------5--5--5--5--0----------------|
A|--3------------------3--3--3--3--x----------------|
E|--1------------------------------3----------------|

Rhythm Fig. 4

E|--------------------------------------------------|
B|--------------------------------------------------|
G|--2----2----2----2--2--2-------2---------2--------|
D|--2----2----2----2--2--2-------2---------2----3---|
A|--0----0----0----0--0--0-------0----3~---0----3---|
E|--------------------------3~------------------1---|


E|--------------------------------------------------|
B|-----------------3--------------------------------|
G|-----------------0--------------------------------|
D|--3--------------0--------------------------------|
A|--3--------------x--------------------------------|
E|--1--------------3--------------------------------|

Rhythm Fig. 5

E|--------------------------------------------------|
B|--------------------------------------------------|
G|--2---2---2---2---2---2---2---2---2---2---2---2---|
D|--2---2---2---2---2---2---2---2---2---2---2---2---|
A|--0---0---0---0---0---0---0---0---0---0---0---0---|
E|--------------------------------------------------|

E|--------------------------------------------------|
B|-----------------3--------------------------------|
G|-----------------0--------------------------------|
D|--3--------------0--------------------------------|
A|--3--------------x--------------------------------|
E|--1--------------3--------------------------------|

Rhythm Fig. 6

E|-------0------------------------------------------|
B|-------0----------3---------------3----3----------|
G|------------------0----------2----0----0----------|
D|--2---------------0-----2----2----x----x----------|
A|--2---------------------2----0----2----3----------|
E|--0-----------------------------------------------|

E|------3---------------------3----2----------------|
B|------3----------3----------3----3----------------|
G|------0----------0--------------------------------|
D|-----------------x--------------------------------|
A|-----------------3--------------------------------|
E|--------------------------------------------------|

Rhythm Fig. 7

E|-------0------------------------------------------|
B|-------0----------3---------------3----3----------|
G|------------------0----------2----0----0----------|
D|--2---------------0-----2----2----x----x----------|
A|--2---------------------2----0----2----3----------|
E|--0-----------------------------------------------|


E|------3-------------------3-----------------------|
B|------3----------3--------3-----------------------|
G|------0----------0--------0-----------------------|
D|-----------------x--------------------------------|
A|-----------------2--------------------------------|
E|---------------------------------3--2-------------|

Rhythm Fig. 8

E|-------0------------------------------------------|
B|-------0----------3---------------3----3----------|
G|------------------0----------2----0----0----------|
D|--2---------------0-----2----2----x----x----------|
A|--2---------------------2----0----2----3----------|
E|--0-----------------------------------------------|

E|------3-------------------------------------------|
B|------3----------3------3--3--3-------------------|
G|------0----------0------0--0--2-------------------|
D|-----------------0------x--x--0-------------------|
A|-----------------x------2--3----------------------|
E|-----------------3--------------------------------|

Rhythm Fig. 9

E|--------------------------------------------------|
B|--------------------------------------------------|
G|--7/-(b9)---(b9)---------7/-(b9)---12----11----10-------|
D|--7/-(b9)---(b9)---------7/-(b9)---12----11----10-------|
A|--5/-7----7----------5/-7----10----(b9)----8--------|
E|--------------------------------------------------|
   < - 3x - ->

Rhythm Fig. 10

E|--------------------------------------------------|
B|------10----10--8---------------------------------|
G|------(b9)----(b9)--(b9)-----12----11----10-------------|
D|-----------------------12----11----10-------------|
A|--------------------------------------------------|
E|--------------------------------------------------|

E|--------------------------------------------------|
B|------10----10--8---------------------------------|
G|------(b9)----(b9)--(b9)-----7/-(b9)---12----11----10-----|
D|-----------------------7/-(b9)---12----11----10-----|
A|-----------------------5/-7----10----(b9)----8------|
E|--------------------------------------------------|

Rhythm Fig. 11

E|--------------------------------------------------|
B|--------------------------------------------------|
G|--12----12----x--12----11------11----x--11----10--|
D|--12----12----x--12----11------11----x--11----10--|
A|--10----10----x--10----(b9)------(b9)----x--(b9)----8---|
E|--------------------------------------------------|

E|--------------------------------------------------|
B|--------------------------------------------------|
G|------10----x--10----(b9)-----(b9)---x--(b9)------------|
D|------10----x--10----(b9)-----(b9)---x--(b9)------------|
A|------8-----x--8-----7------7----x--7-------------|
E|--------------------------------------------------|

E|--------------------------------------------------|
B|--------------------------------------------------|
G|--12----12----x--12----11------11----x--11----10--|
D|--12----12----x--12----11------11----x--11----10--|
A|--10----10----x--10----(b9)------(b9)----x--(b9)----8---|
E|--------------------------------------------------|
   < - - - - - - - - - - - - - - - - - - - 2x - - - -


E|--------------------------------------------------|
B|--------------------------------------------------|
G|------10----x--10---------------------------------|
D|------10----x--10---------------------------------|
A|------8-----x--8-----7----5-----------------------|
E|-----------------------------7--6--5--3--0--------|
  - - - - - - - - - - - - - - - - - - - - - - - - ->


E|--------------------------------------------------|
B|--------------------------------------------------|
G|--12----12----x--12----11------11----x--11--------|
D|--12----12----x--12----11------11----x--11----3---|
A|--10----10----x--10----(b9)------(b9)----x--(b9)----3---|
E|----------------------------------------------1---|

E|--------------------------------------------------|
B|--------------------------------------------------|
G|--------------------------------------------------|
D|----3--3--3--3--3--3--3--3--3--3--3--3--3--3------|
A|----3--3--3--3--3--3--3--3--3--3--3--3--3--3------|
E|----1--1--1--1--1--1--1--1--1--1--1--1--1--1------|




Riff 1

E|--------------------------------------------------|
B|--------------------------------------------------|
G|--------------------------------------------------|
D|--------------------------------------------------|
A|--x----------------------------------------------|
E|--x----------------------------------------------|
  Pick scrape


Riff 2

E|--------------------------------------------------|
B|--10~---------------------------------------------|
G|--------------------------------------------------|
D|--------------------------------------------------|
A|--------------------------------------------------|
E|--------------------------------------------------|
                Feedback


Riff 3

E|--------------------------------------------------|
B|--------------------------------------------------|
G|---------------2b-r2--2b-r2-2b---2--0------5**~---|
D|--2(0)----2*---------------------------2----------|
A|--------------------------------------------------|
E|--------------------------------------------------|
                                                W/bar


E|--------------------------------------------------|
B|--------------------------------------------------|
G|--7**~------4**()--------------------------------|
D|--------------------------------------------------|
A|--------------------------------------------------|
E|--------------------------------------------------|
       W/bar

Riff 4

E|--------------------------------------------------|
B|--/12-12-12-13-12---------------------------------|
G|--/12-12-12-12-12---------------------------------|
D|--------------------------------------------------|
A|--------------------------------------------------|
E|--------------------------------------------------|

Solo

E|--------------------------------------------------|
B|--12-------14------15------17---17-17h20p17----17-|
G|--14b~-----16b~----17b~----19b--------------1(b9)---|
D|--------------------------------------------------|
A|--------------------------------------------------|
E|--------------------------------------------------|


E|----------------1(b9)--1(b9)---19h22p1(b9)---1(b9)22b-r22-|
B|--20b^^-r20-----22b--22b~-----------22------------|
G|--------------------------------------------------|
D|--------------------------------------------------|
A|--------------------------------------------------|
E|--------------------------------------------------|


E|----22p1(b9)---1(b9)1(b9)--1(b9)1(b9)-1(b9)1(b9)-1(b9)1(b9)--1(b9)22~-|
B|----------22----22b-----22b----22b----22b---------|
G|--------------------------------------------------|
D|--------------------------------------------------|
A|--------------------------------------------------|
E|--------------------------------------------------|


E|--------------------------------------------------|
B|--12--11-----11--10-----10--8---------------------|
G|--14b-13b~---13b-12b~---12b-10b~------------------|
D|--------------------------------------------------|
A|--------------------------------------------------|
E|--------------------------------------------------|


E|--------------------------------------------------|
B|--12-------12--11------11-10----------------17----|
G|--14b~-----14b-13b~----13-12b~-----------17-------|
D|-----------------------------------17h1(b9)---------|
A|--------------------------------------------------|
E|--------------------------------------------------|


E|-----------------17h20p17~--------------17h20p17~-|
B|-----------17h20------------------17h20-----------|
G|--19p17-1(b9)-----------------17h1(b9)----------------|
D|--------------------------------------------------|
A|--------------------------------------------------|
E|--------------------------------------------------|

Outro solo

E|--------------------------------------------------|
B|--17----20-17-20p17~------------------------------|
G|--19b~------------------17------------------------|
D|---------------------------1(b9)17-1(b9)17------------|
A|---------------------------------------1(b9)18-17---|
E|--------------------------------------------------|


E|--------------------------------------------------|
B|----------------15b-15b~--------------------------|
G|----------------------------7b-r7-7b~-------------|
D|--------------------------------------------------|
A|--15-17~------------------------------------------|
E|--------------------------------------------------|
                                      Hold bend - - -

E|--------------------------------------------------|
B|--------------------------------------------------|
G|--t12---p7-r7p5-t12p7p5-t12p7p5-------------------|
D|--------------------------------7~----------------|
A|--------------------------------------------------|
E|--------------------------------------------------|
 - - ->


                                  BETRAYED


[Riff 1]
[Rhy. Fig 1]
[Rhy. Fig 1 w/ Riff 2]
[Rhy. Fig 2]

[Rhy. Fig 6]
You pay your taxes, you pay the rent, till you haven't got a cent
[Rhy. Fig 7] (2x)
It's the law of the jungle, if you got the hunger
What doesn't kill you makes you stronger
Just hold on to what you got (hold on, hold on), just live it to the last drop
[Rhy. Fig 8]
You can't help it, you just can't stop

[Rhy. Fig 1] (2x)
Betrayed, yeah, life's a bitch, so just don't feel
Betrayed, no, you ain't the only one who's been
[Rhy. Fig 2]
Betrayed, betrayed

[Rhy. Fig 6]
Stone cold and all alone, and you're wearin' everything you own
[Rhy. Fig 7]
They bare your flesh and strip your soul, but underneath you got a heart of gold
[Rhy. Fig 8]
Just hold on to what you got (hold on, hold on)

[Rhy. Fig 1] (2x)
Betrayed, you ain't satisfied, I know you feel betrayed
You ain't crucified, so get real
[Rhy. Fig 3]
Betrayed, betrayed

[Rhy. Fig 9 w/ Rhy. Fig 10]
(w/ spoken words)

[Rhy. Fig 11 w/ Solo]
All alone, far from home, and you're feelin' cold as stone
Don't give up, don't give in, life's a bitch if you lose or win

[Rhy. Fig 1] (2x)
Betrayed - yeah, you ain't the only one who's been
Betrayed - life's a bitch, if you lose or win - betrayed, betrayed

[Rhy. Fig 4 w/ Riff 4 and Outro solo]
Betrayed, betrayed (repeat lyrics till fade)

[Rhy. Fig 1]
[Rhy. Fig 5] (repeat)		   
AcordesyTabs.com © 2008 Acordes y Tablaturas para guitarra. Tabs and Chords for guitar. Aviso Legal - Contacto
El uso de este sitio está sujeto a la aceptación de los términos y condiciones (42 usuarios online)