tablaturas, partituras y acordes para guitarra
Busca por banda/artista:
 
y/o título de la canción:
A B C D E F G H I J K L M N O P Q R S T U V W X Y Z 0 1 2 3 4 5 6 7 8 9 / Top 100 tabs
Categorías
Usuarios
usuario:
Darse de alta
password:
Artistas más visitados
Publicidad
TOP acordes y tablaturas de Kiss
:: Beth - Kiss


Estás en: Inicio > Letra K > Acordes y tablaturas de Kiss > Any way you want it
Any way you want it
de Kiss
Puntúa este acorde/tab:      
(0.6/5)
Reportar este acorde/tab
  Añadir a tus favoritos
  Imprimir
Eb Tuning

Key:
/    = slide up
    = slide down
b    = bend (whole step)
b^   = bend (1/2 step)
b^^  = bend (1 1/2 steps)
pb   = pre-bend
r    = release-bend
r^   = release-bend half-step
h^   = hammer-on
p^   = pull-off
~    = Vibrato
*    = Natural Harmonic
#(#) = Trill
**   = Artificial Harmonic
x    = Muted String (Palm Muting)
X    = Muted String (Fretboard Muting)


Rhythm Fig. 1

Eb|----------------------------------------------------|
Bb|----------------------------------------------------|
Gb|--2-2---2-2-2---------------------------------------|
Db|--2-2---2-2-2---------------------------------------|
Ab|--0-0---0-0-0---------------------------------------|
Eb|----------------------------------------------------|
     <----2x--->


Rhythm Fig. 2

Eb|----------------------------------------------------|
Bb|----------------------------------------------------|
Gb|-2-2--2-2-2---------------------2-2--2-2-2----------|
Db|-2-2--2-2-2-----4-4--4-4-4-4----2-2--2-2-2----4-----|
Ab|-0-0--0-0-0-----4-4--4-4-4-4----0-0--0-0-0----4-----|
Eb|----------------2-2--2-2-2-2------------------2-----|
    <---------3x-------------->

Rhythm Fig. 3

Eb|----------------------------------------------------|
Bb|----------------------------------------------------|
Gb|-2-2--2-2-2---------------------7-7-7-7--(b9)(b9)(b9)(b9)---|
Db|-2-2--2-2-2-----4-4--4-4-4-4----7-7-7-7--(b9)(b9)(b9)(b9)---|
Ab|-0-0--0-0-0-----4-4--4-4-4-4----5-5-5-5--7-7-7-7----|
Eb|----------------2-2--2-2-2-2------------------------|
    <-----------2x------------>

              end. 1                 end. 2
Eb|----------|---------------------|-------------------|
Bb|----------|---------------------|-------------------|
Gb|-2-2-2-2--|---------------------|--2-2-2-2----------|
Db|-2-2-2-2--|-2-2-2-2-2-2-2-2-2---|--2-2-2-2----------|
Ab|-0-0-0-0--|-2-2-2-2-2-2-2-2-2---|--0-0-0-0----------|
Eb|----------|-0-0-0-0-0-0-0-0-0---|-------------------|


Rhythm Fig. 3a

Eb|----------------------------------------------------|
Bb|------------------------------0---------------------|
Gb|-7-7--(b9)(b9)-2-2-2-2---2-2-2-2--2---------------------|
Db|-7-7--(b9)(b9)-2-2-2-2---2-2-2-2--2---------------------|
Ab|-5-5--7-7--0-0-0-0---0-0-0-0--0---------------------|
Eb|----------------------------------------------------|
    <-------2x------>


Rhythm Fig. 4

Eb|----------------------------------------------------|
Bb|----------------------------------------------------|
Gb|--7-7-7-7--7-7-7-7----------------------------------|
Db|--7-7-7-7--7-7-7-7---7-7-7-7--6-7-7-7--6-7-7--------|
Ab|--5-5-5-5--5-5-5-5---7-7-7-7--6-7-7-7--6-7-7--------|
Eb|---------------------5-5-5-5--4-5-5--4-5--------|

Eb|----------------------------------------------------|
Bb|----------------------------------------------------|
Gb|--7-7-7-7--7-7-7-7---4-4-4-4---(b9)(b9)(b9)(b9)(b9)(b9)(b9)(b9)-----|
Db|--7-7-7-7--7-7-7-7---4-4-4-4---(b9)(b9)(b9)(b9)(b9)(b9)(b9)(b9)-----|
Ab|--5-5-5-5--5-5-5-5---2-2-2-2---7-7-7-7-7-7-7-7------|
Eb|----------------------------------------------------|
                        <--2x->   <------2x----->



                           ANY WAY YOU WANT IT

[Rhythm Fig. 1]

[Rhythm Fig. 2]
Any way you want it, you can call me any day, hey, hey, hey
Any way you want it, you will always hear me say, hey, hey, hey

[Rhythm Fig. 3 w/end. 1]
It's alright (it's alright), it's alright (it's alright)
It's alright (it's alright), it's alright
So any way you want it, that's the way it will be

[Rhythm Fig. 2]
You don't want money, you don't want a diamond ring, hey, hey, hey
You say you want my lovin' more than any other thing, hey, hey, hey

[Rhythm Fig. 3 w/end. 2]
It's alright (it's alright), it's alright (it's alright)
It's alright (it's alright), it's alright
So any way you want it, that's the way it will be

[Rhythm Fig. 4]
Any way, any way you want it, that's alright by me
Any way, any way you want it, that's the way it will be

[Rhythm Fig. 2]
Any way you want it, you can call me any day, hey, hey, hey
Any way you want it, you will always hear me say, hey, hey, hey

[Rhythm Fig. 3 w/end. 2]
It's alright (it's alright), it's alright (it's alright)
It's alright (it's alright), it's alright
So any way you want it, that's the way it will be

[Rhythm Fig. 4]
Any way, any way you want it, that's alright by me
Any way, any way you want it, that's the way it will be

[Rhythm Fig. 2]
Any way you want it, you can call me any day, hey, hey, hey
Any day you want it, you will always hear me say, hey, hey, hey

[Rhythm Fig. 3 w/end. 2]
It's alright (it's alright), it's alright (it's alright)
It's alright (it's alright), it's alright
So any way you want it, that's the way it will be
[Rhythm Fig. 3a] (2x)
That's the way it will be
That's the way it will be		   
AcordesyTabs.com © 2008 Acordes y Tablaturas para guitarra. Tabs and Chords for guitar. Aviso Legal - Contacto
El uso de este sitio está sujeto a la aceptación de los términos y condiciones (23 usuarios online)