tablaturas, partituras y acordes para guitarra
Busca por banda/artista:
 
y/o título de la canción:
A B C D E F G H I J K L M N O P Q R S T U V W X Y Z 0 1 2 3 4 5 6 7 8 9 / Top 100 tabs
Categorías
Usuarios
usuario:
Darse de alta
password:
Artistas más visitados
Publicidad
TOP acordes y tablaturas de Kiss
:: Beth - Kiss


Estás en: Inicio > Letra K > Acordes y tablaturas de Kiss > And on the 8th day
And on the 8th day
de Kiss
Puntúa este acorde/tab:      
(0.5/5)
Reportar este acorde/tab
  Añadir a tus favoritos
  Imprimir
Standard Tuning

(Intro)
E|-5-5-5--8--8--8--10-10-10-----5---------------------|
B|-5-5-5--8--8--8--10-10-10-----5---------------------|
G|-6-6-6--(b9)-(b9)-(b9)-11-11-11-----6---------------------|
D|-7-7-7--10-10-10-12-12-12-----7------3-3-3--5-5-5---|
A|-7-7-7--10-10-10-12-12-12-----7------3-3-3--5-5-5---|
E|-5-5-5--8--8--8--10-10-10-----5------1-1-1--3-3-3---|

E|-5-------3-3-3--------------------------------------|
B|-5-------3-3-3--------------------------------------|
G|-6-------4-4-4---7-7-7------------------------------|
D|-7-------5-5-5---7-7-7---2-2-2----------------------|
A|-7-------5-5-5---5-5-5---2-2-2----------------------|
E|-5-------3-3-3-----------0-0-0----------------------|

E|----------------------------------------------------|
B|----------------------------------------------------|
G|----------7-----------7-----------7-----------7-----|
D|----7-----5-----7-----5-----7-----5-----7-----5-----|
A|----7-4-5---4~--7-4-5---4~--7-4-5---4~--7-4-5---4~--|
E|-3~-5-----------5-----------5-----------5-----------|

E|----------------------------------------------------|
B|----------------------------------------------------|
G|--------7-----------7-----------------(b9)------------|
D|--7-----5-----7-----5-----(b9)----7-----(b9)------------|
A|--7-4-5---4~--7-4-5---4~--(b9)----7-----7-------------|
E|--5-----------5-----------7-----7-------------------|

E|----------------------------------------------------|
B|----------------------------------------------------|
G|----------7-----------7-----------7-----------7-----|
D|----7-----5-----7-----5-----7-----5-----7-----5-----|
A|----7-4-5---4~--7-4-5---4~--7-4-5---4~--7-4-5---4~--|
E|-3~-5-----------5-----------5-----------5-----------|

E|----------------------------------------------------|
B|----------------------------------------------------|
G|--------7-----------7-----------------(b9)10-12--12---|
D|--7-----5-----7-----5-----(b9)----7-----(b9)10-12--12---|
A|--7-4-5---4~--7-4-5---4~--(b9)----7-----7-8--10--10---|
E|--5-----------5-----------7-----7-------------------|

E|-5---8---10---5-----------5---3---------------------|
B|-5---8---10---5-----------5---3---------------------|
G|-6---(b9)--11---6-----------6---4---7-----------------|
D|-7---10--12---7---3---5---7---5---7---2-------------|
A|-7---10--12---7---3---5---7---5---5---2-------------|
E|-5---8---10---5---1---3---5---3-------0-------------|

E|----------------------------------------------------|
B|----------------------------------------------------|
G|----------7-----------7-----------7-----------7-----|
D|----7-----5-----7-----5-----7-----5-----7-----5-----|
A|----7-4-5---4~--7-4-5---4~--7-4-5---4~--7-4-5---4~--|
E|-3~-5-----------5-----------5-----------5-----------|

E|----------------------------------------------------|
B|----------------------------------------------------|
G|--------7-----------7-----------------(b9)------------|
D|--7-----5-----7-----5-----(b9)----7-----(b9)------------|
A|--7-4-5---4~--7-4-5---4~--(b9)----7-----7-------------|
E|--5-----------5-----------7-----7-------------------|

E|----------------------------------------------------|
B|----------------------------------------------------|
G|----------7-----------7-----------7-----------7-----|
D|----7-----5-----7-----5-----7-----5-----7-----5-----|
A|----7-4-5---4~--7-4-5---4~--7-4-5---4~--7-4-5---4~--|
E|-3~-5-----------5-----------5-----------5-----------|

E|----------------------------------------------------|
B|----------------------------------------------------|
G|--------7-----------7-----------------(b9)10-12--12---|
D|--7-----5-----7-----5-----(b9)----7-----(b9)10-12--12---|
A|--7-4-5---4~--7-4-5---4~--(b9)----7-----7-8--10--10---|
E|--5-----------5-----------7-----7-------------------|

E|-5---8---10---5-----------5---3---------------------|
B|-5---8---10---5-----------5---3---------------------|  x2
G|-6---(b9)--11---6-----------6---4---7-----------------|
D|-7---10--12---7---3---5---7---5---7---2-------------|
A|-7---10--12---7---3---5---7---5---5---2-------------|
E|-5---8---10---5---1---3---5---3-------0-------------|

E|---------------5------------------------------------|
B|---------------3------------------------------------|
G|---------------2---2--------------------------------|
D|-------5-----0---2-2---3--5---2---3--5------------|
A|-------3---------0-2---3--3---2---3--5------------|
E|-3-5-5-----3-5-------0---1--3---0---1--3------------|
   |-----3x-----|                    5x 5x

E|----------------------------------------------------|
B|-15b---15b--15b--15b--15b-15---15-15-13-15-17-13b---|
G|----------------------------------------------------|
D|----------------------------------------------------|
A|----------------------------------------------------|
E|----------------------------------------------------|

E|-15b~-----------------------------------------------|
B|--------13-12---------------------------------------|
G|--------------12h^14-14h^17p^14-(14)~~~~~-----------|
D|----------------------------------------------------|
A|----------------------------------------------------|
E|----------------------------------------------------|
                                   ^^^^^^^^ with tremolo 

E|-17b~-17-15----15-17---17-16-17-16-17-16-17-19~~----|
B|------------17--------------------------------------|
G|----------------------------------------------------|
D|----------------------------------------------------|
A|----------------------------------------------------|
E|----------------------------------------------------|

E|-24~---24-23-24~---1(b9)------------------------------|
B|----------------------20b-20b---17-16-15------------|
G|-----------------------------------------16-14b-----|
D|------------------------------------------------17--|
A|----------------------------------------------------|
E|----------------------------------------------------|

E|--------------17-19b---17-15-17~~-------------------|
B|-----17-18-1(b9)--------------------------------------|
G|-14b------------------------------------------------|
D|----------------------------------------------------|
A|----------------------------------------------------|
E|----------------------------------------------------|

E|----------------------------------------------------|
B|----------------------------------------------------|
G|----------7-----------7-----------7-----------7-----|
D|----7-----5-----7-----5-----7-----5-----7-----5-----|
A|----7-4-5---4~--7-4-5---4~--7-4-5---4~--7-4-5---4~--|
E|-3~-5-----------5-----------5-----------5-----------|

E|----------------------------------------------------|
B|----------------------------------------------------|
G|----------7-----------7-----------7-----------7-----|
D|----7-----5-----7-----5-----7-----5-----7-----5-----|
A|----7-4-5---4~--7-4-5---4~--7-4-5---4~--7-4-5---4~--|
E|----5-----------5-----------5-----------5-----------|

E|----------------------------------------------------|
B|----------------------------------------------------|
G|--------7-----------7-----------------(b9)10-12--12---|
D|--7-----5-----7-----5-----(b9)----7-----(b9)10-12--12---|
A|--7-4-5---4~--7-4-5---4~--(b9)----7-----7-8--10--10---|
E|--5-----------5-----------7-----7-------------------|

E|-5---8---10---5-----------5---3---------------------|
B|-5---8---10---5-----------5---3---------------------|
G|-6---(b9)--11---6-----------6---4---7-----------------|
D|-7---10--12---7---3---5---7---5---7---2-------------|
A|-7---10--12---7---3---5---7---5---5---2-------------|
E|-5---8---10---5---1---3---5---3-------0-------------|

E|----------------------------------------------------|
B|----------------------------------------------------|
G|-7--------------------------------------------------|
D|-7--------------------------------------------------|
A|-5--------------------------------------------------|
E|----------------------------------------------------|

E|-5---8---10---5-----------5---3---------------------|
B|-5---8---10---5-----------5---3---------------------|
G|-6---(b9)--11---6-----------6---4---7-----------------|
D|-7---10--12---7---3---5---7---5---7---2-------------|
A|-7---10--12---7---3---5---7---5---5---2-------------|
E|-5---8---10---5---1---3---5---3-------0-------------|

E|----------------------------------------------------|
B|-10-10---8---7---5~~-----10-10---8---7---5~~--------|
G|----------------------------------------------------|
D|----------------------------------------------------|
A|----------------------------------------------------|
E|----------------------------------------------------|

E|-5---8---10---5-----------5---3---------------------|
B|-5---8---10---5-----------5---3---------------------|
G|-6---(b9)--11---6-----------6---4---7-----------------|
D|-7---10--12---7---3---5---7---5---7---2-------------|
A|-7---10--12---7---3---5---7---5---5---2-------------|
E|-5---8---10---5---1---3---5---3-------0-------------|

E|----------------------------------------------------|
B|-10-10---8---7---5~~-----10-10---8---7---5~~--------|
G|----------------------------------------------------|
D|----------------------------------------------------|
A|----------------------------------------------------|
E|----------------------------------------------------|

E|-5---8---10---5-----------5---3---------------------|
B|-5---8---10---5-----------5---3---------------------|
G|-6---(b9)--11---6-----------6---4---7-----------------| (fade out)
D|-7---10--12---7---3---5---7---5---7---2-------------|
A|-7---10--12---7---3---5---7---5---5---2-------------|
E|-5---8---10---5---1---3---5---3-------0-------------|		   
AcordesyTabs.com © 2008 Acordes y Tablaturas para guitarra. Tabs and Chords for guitar. Aviso Legal - Contacto
El uso de este sitio está sujeto a la aceptación de los términos y condiciones (24 usuarios online)