tablaturas, partituras y acordes para guitarra
Busca por banda/artista:
 
y/o título de la canción:
A B C D E F G H I J K L M N O P Q R S T U V W X Y Z 0 1 2 3 4 5 6 7 8 9 / Top 100 tabs
Categorías
Usuarios
usuario:
Darse de alta
password:
Artistas más visitados
Publicidad
TOP acordes y tablaturas de Kiss
:: Beth - Kiss


Estás en: Inicio > Letra K > Acordes y tablaturas de Kiss > All the way
All the way
de Kiss
Puntúa este acorde/tab:      
(0.6/5)
Reportar este acorde/tab
  Añadir a tus favoritos
  Imprimir
e|---------------------------------------------------------------------------|
B|---------------------------------------------------------------------------|
G|-----------------5-----------------------------------------------5---------|
D|-2----7----------5----5-----2----7---------5----2-----7----------5----5----|
A|-0----5---------------3-----0----5---------3----0-----5---------------3----|
E|-----------2--3~-------------------------------------------2--3~-----------|
                                                                      

  repeat for verses                "And you just keep..."
e|-------------------------------|--------00--00---------------------|
B|-------------------------------|--------00--00---------------------|
G|-------------------------------|---99(b9)-9(b9)-9(b9)-------(b9)(b9)(b9)--(b9)(b9)-|
D|---4--4----4--4------7--7--7-7-|---99(b9)-9(b9)-9(b9)-------7-7-(b9)--7-(b9)-|
A|---2--2----2--2------5--5--5-5-|---777--77--77--------7-7-7---7-7--|
E|-------------------------------|---0----00--00---------------------|
                                           repeat similar pattern


   solo
e|-------------------------------------------------------20b~~-20b/20-17--17-|
B|-----20b~-20b~-20b~-20b~------17--17--17--19/17/19/17-----------------20---|
G|------------------------------17--17--17--19/17/19/17----------------------|
D|--------------------------1(b9)----------------------------------------------|
A|---------------------------------------------------------------------------|
E|---------------------------------------------------------------------------|


e|---17-17-------------------------------------------------------------------|
B|20b------20-17-20-17-----20---------------------------------11/12/11/10----|
G|---------------------19b~~-19b/1(b9)17/19/17--17-19b/19/17---------------11-11
D|------------------------------------------1(b9)-----------1(b9)----------------|
A|---------------------------------------------------------------------------|
E|---------------------------------------------------------------------------|


e|---------------------------------------------------------------------------|
B|----------------------------------------5--5---5-8----5--5---5-8----5--5---|
G|-/12/11(b9)----7/8/7/5-------------------7b---7-----7--7b---7-----7--7b---7-|
D|---------12----------7-7/8/7/5---------------------------------------------|
A|------------------------------7--------------------------------------------|
E|---------------------------------------------------------------------------|


e|---------------------------------------------------------------------------|
B|5-8----5--5---5--8----5--5---8-5----5--5---8-5-----------------------------|
G|----7--7b---7------7--7b---7-----7--7b---7-----7--5/7-7b(10)~---7/5---5----|
D|--------------------------------------------------------------------7---7/5|
A|---------------------------------------------------------------------------|
E|---------------------------------------------------------------------------|


e|---------------------------------------------------------------------------|
B|-----------------------5--------7--7/10/7-7--7/10/7-7---10--10/13/10-10--10|
G|---5---------5-------5-5--------9b--------9b--------9b--12b----------12b---|
D|/7-----7/5/7---7/5/7-------------------------------------------------------|
A|---------------------------------------------------------------------------|
E|---------------------------------------------------------------------------|


e|--------------------------------|
B|/13/10-10--10/13/10-10--10/13/10|
G|-------12b----------12b---------|
D|--------------------------------|
A|--------------------------------|
E|--------------------------------|		   
AcordesyTabs.com © 2008 Acordes y Tablaturas para guitarra. Tabs and Chords for guitar. Aviso Legal - Contacto
El uso de este sitio está sujeto a la aceptación de los términos y condiciones (25 usuarios online)