tablaturas, partituras y acordes para guitarra
Busca por banda/artista:
 
y/o título de la canción:
A B C D E F G H I J K L M N O P Q R S T U V W X Y Z 0 1 2 3 4 5 6 7 8 9 / Top 100 tabs
Categorías
Usuarios
usuario:
Darse de alta
password:
Artistas más visitados
Publicidad
TOP acordes y tablaturas de Kiss
:: Beth - Kiss


Estás en: Inicio > Letra K > Acordes y tablaturas de Kiss > All american man
All american man
de Kiss
Puntúa este acorde/tab:      
(0.8/5)
Reportar este acorde/tab
  Añadir a tus favoritos
  Imprimir
Eb Tuning

Key:
/    = slide up
    = slide down
b    = bend (whole step)
b^   = bend (1/2 step)
pb   = pre-bend
r    = release-bend
h^   = hammer-on
p^   = pull-off
~    = Vibrato
*    = Natural Harmonic
#(#) = Trill
**   = Artificial Harmonic
x    = Muted String (Palm Muting)
X    = Muted String (Fretboard Muting)

One of the best of teh studio tracks from ALIVE II!. Bob Kulick plays lead
guitar on this one. They do try to make him play ACE-type licks, but if you
know ACE's playing, you KNOW it's not him. Regardless Bob does some good 
work on this one. Using Trills (with a whammy bar and without), Bends, and
some copped Ace licks to get this done... Well done. As for Paul, his
rhythm work is superb, throwing in some overdubbed fills to make this song
move.. Enjoy!




Rhythm Fig. 1

Eb|----------------------------------------------------|
Bb|----------------------------------------------------|
Gb|--2-2-------5--/2------2-2-------5--/2----|
Db|--2-2-------5--/2------2-2-------5--/2----|
Ab|--0-0-0-0-0------------------0-0-0-0-0--------------|
Eb|----------------------------------------------------|


Rhythm Fig. 1a

Eb|----------------------------------------------------|
Bb|------------------3------------------------3--------|
Gb|---------------2--2---2----------------2---2--------|
Db|---------------2--0---2----------------2---0--------|
Ab|---------------0------0----------------0------------|
Eb|-0h^3p^0h^3b^-------------0h^3p^0h^3b^--------------|


Rhythm Fig. 1b


Eb|----------------------------------------------------|
Bb|---------3----------------3-------------------------|
Gb|---2-----2----------2-----2-------------------------|
Db|---2-----0----------2-----0-------------------------|
Ab|---0----------------0-------------------------------|
Eb|----------------------------------------------------|


Rhythm Fig. 1c

Eb|----------------------------------------------------|
Bb|----------------------------------------------------|
Gb|--2-2-------5--/2------2-2-------5--/2----|
Db|--2-2-------5--/2------2-2-------5--/2----|
Ab|--0-0-0-0-0------------------0-0-0-0-0--------------|
Eb|----------------------------------------------------|

Eb|----------------------------------------------------|
Bb|----------------------------------------------------|
Gb|--2-2-------5--/2------2-2-------5--/2----|
Db|--2-2-------5--/2------2-2-------5--/2----|
Ab|--0-0-0-0-0------------------0-0-0-0-0------------|
Eb|----------------------------------------------------|

Eb|----------------------------------------------------|
Bb|----------------------------------------------------|
Gb|-----------------------------2-2-------5--/2----|
Db|-----------------------------2-2-------5--/2----|
Ab|-----------------------0-0-0-0-0------------|
Eb|----------------------------------------------|
       Pick Scrape

Eb|----------------------------------------------------|
Bb|----------------------------------------------------|
Gb|--2-2-------5--/2------2-2-----------2--------|
Db|--2-2-------5--/2------2-2-----------2--------|
Ab|--0-0-0-0-0------------------0-0-----------0--------|
Eb|----------------------------------------------------|


Rhythm Fig. 2

Eb|----------------------------------------------------|
Bb|----------------------------------------------------|
Gb|-----(b9)-------------7---5-5-5-5---------------------|
Db|-2---(b9)-------------7---5-5-5-5-5-------------------|
Ab|-2---7--------------5---3-0-3-0-5-------------------|
Eb|-0-------h^3-0h^5---------------3-------------------|
    <-----3x-------->

Rhythm Fig. 2a


Eb|----------------------------------------------------|
Bb|--------------------3-------------------------------|
Gb|-----(b9)-------------2-------------------------------|
Db|-----(b9)-------------0-------------------------------|
Ab|-----7------------------3-0-3-0---------------------|
Eb|-0-------h^3-0h^5---------------3-------------------|
    <-------3x------>

Rhythm Fig. 3


Eb|----------------------------------------------------|
Bb|--------------------3-------------------------------|
Gb|-----4--------------2-------------------------------|
Db|-----4--------------0-------------------------------|
Ab|-----2------------------3-0-3-0---------------------|
Eb|--------------------------------3-------------------|
      <12x>


Riff. 1

Eb|----17----------------20b-20~~---17-----------------|
Bb|----20b~--20b-r20p^17------------20b~-20b-r20p^17---|
Gb|----------------------------------------------------|
Db|----------------------------------------------------|
Ab|----------------------------------------------------|
Eb|----------------------------------------------------|


Eb|--------17----------------20b-20~~-17---------------|
Bb|--17----20b~-20b-r20p^17------------20b~-20b-r20-17-|
Gb|--19b~----------------------------------------------|
Db|----------------------------------------------------|
Ab|----------------------------------------------------|
Eb|----------------------------------------------------|


Eb|-20b~~----------------------------------------------|
Bb|----------------------------------------------------|
Gb|----------------------------------------------------|
Db|----------------------------------------------------|
Ab|----------------------------------------------------|
Eb|----------------------------------------------------|


Riff. 2

Eb|----17----------------20b-20~~---17-----------------|
Bb|----20b~--20b-r20p^17------------20b~-20b-r20p^17---|
Gb|----------------------------------------------------|
Db|----------------------------------------------------|
Ab|----------------------------------------------------|
Eb|----------------------------------------------------|


Eb|--------17----------------20b-20~~--17--------------|
Bb|--17----20b~-20b-r20p^17------------20b~-20b-r20-17-|
Gb|--19b~----------------------------------------------|
Db|----------------------------------------------------|
Ab|----------------------------------------------------|
Eb|----------------------------------------------------|


Eb|------------17--------------------------------------|
Bb|--17--------17--20--20b--r20p^17----20b~~-----------|
Gb|--19b~--19b----------------------1(b9)----------------|
Db|----------------------------------------------------|
Ab|----------------------------------------------------|
Eb|----------------------------------------------------|

Solo.

Eb|----------------------------------------------------|
Bb|--17(20)--------------------------------------------|
Gb|-----------2(0)-------------------------------------|
Db|------------------------------17b~~-----------------|
Ab|----------------------------------------------------|
Eb|----------------------------------------------------|


Eb|--------------20p^17----------20b-------------------|
Bb|--17h^20p^17---------20p^17-------------------------|
Gb|----------------------------------------------------|
Db|----------------------------------------------------|
Ab|----------------------------------------------------|
Eb|----------------------------------------------------|
                 <-----6x---->


Eb|-----------------20b--20b~--------------------------|
Bb|-20p^17---------------------------------------------|
Gb|--------19p^17--------------------------------------|
Db|----------------------------------------------------|
Ab|----------------------------------------------------|
Eb|----------------------------------------------------|
    <-----4x---->



                  ALL AMERICAN MAN

 
[Rhythm Fig. 1](2x)
[Rhythm Fig. 1](2x)w/Riff.1

[Rhythm Fig. 1](4x)
Yeah
Mama told me, "Your lady's lookin' for another man"
I never worry, there ain't a need for me to take no stand
I got my reasons, the things I do are better left unsaid
I'm into pleasin', I do my talkin' with my hands instead

[Rhythm Fig. 2 w/Rhythm Fig. 2a]
'Cause I can make some time
You got your ticket and you're lookin' fine
You're starin' at the band, you want to land
A six foot, hot look, all american man, yeah

[Rhythm Fig. 1](2x)

[Rhythm Fig. 1](2x) w/[Rhythm Fig. 1a]
I've been to Detroit, I've been to L.A. and I've seen St. Lou
I've had some good times, but I've been waitin' for a girl like you

[Rhythm Fig. 2 w/Rhythm Fig. 2a]
'Cause I can make some time
You got your ticket and you're lookin' fine
You're starin' at the band, you want to land
A six foot, hot look, all american man, yeah
All American man

[Rhythm Fig. 1]
[Rhythm Fig. 3]

[Solo] w/ [Rhythm Fig. 1 and Rhythm Fig. 1b](2x)

[Rhythm Fig. 2 w/Rhythm Fig. 2a]
'Cause I can make some time
You got your ticket and you're lookin' fine
You're starin' at the band, you want to land
A six foot, hot look, all american man, a man

[Rhythm Fig. 1c]w/[Rhythm Fig. 1a] w/Riff.2
I'm a six foot, hot look, all american man, yeah		   
AcordesyTabs.com © 2008 Acordes y Tablaturas para guitarra. Tabs and Chords for guitar. Aviso Legal - Contacto
El uso de este sitio está sujeto a la aceptación de los términos y condiciones (22 usuarios online)