tablaturas, partituras y acordes para guitarra
Busca por banda/artista:
 
y/o título de la canción:
A B C D E F G H I J K L M N O P Q R S T U V W X Y Z 0 1 2 3 4 5 6 7 8 9 / Top 100 tabs
Categorías
Usuarios
usuario:
Darse de alta
password:
Artistas más visitados
Publicidad
TOP acordes y tablaturas de Nevermore


Estás en: Inicio > Letra N > Acordes y tablaturas de Nevermore > The heart collector
The heart collector
de Nevermore
Puntúa este acorde/tab:      
(0.5/5)
Reportar este acorde/tab
  Añadir a tus favoritos
  Imprimir
|------------------------------------------------------------------------------| 
|------------------------------------------------------------------------------| 
|------------------------------------------------------------------------------| 
|------------------------------------------------------------------------------| 
|-11---11-11----11-(b9)-7----7--7-----7(b9)-7----7--7-----------6----6--6--6--6---| 
|-(b9)---(b9)-(b9)-0--(b9)-7--5----5--5--0--5/7--7----7--7--0--7--7--4----4--4--4--4---| 
|-(b9)---(b9)-(b9)-0--(b9)-7--5----5--5--0--5/7--5----5--5--0--4--5--4----4--4--4--4---|

|------------------------------------------------------------------------------| 
|------------------------------------------------------------------------------| 
|------------------------------------------------------------------------------| 
|------------------------------------------------------------------------------| 
|-11---11-11----11-(b9)-7----7--7-----7(b9)-7----7--7-----(b9)-7--7---7---6---6--6--| 
|-(b9)---(b9)-(b9)-0--(b9)-7--5----5--5--0--5/7--7----7--7--0--7--5--4---4---4---4--4--| 
|-(b9)---(b9)-(b9)-0--(b9)-7--5----5--5--0--5/7--5----5--5--0--7--5--4---4---4---4--4--| 



Intro Solo(play over Intro/Chorus) 
|------------------------------------------------------------------------------| 
|------------------------------------------------------------------------------| 
|---------------------7~-----------------6~------6---7---6--4h6------4~--------| 
|-~-----4---6---7-------------4--6--7---------------------------------------:|x2 
|------------------------------------------------------------------------------| 
|------------------------------------------------------------------------------| 
|------------------------------------------------------------------------------| 



Intro sequense 2 
|---------------------------0--------------------------------------------------| 
|-------------------------0----------------------------------------------------| 
|------------------------------------------------------------------------------| 
|-------7------7------------------------------------------------7~-----7-7-----| 
|-7-----7------5-------------------8----------------------------7~-----7-7-----| 
|-7-----5------5---0--2------------6------6--5h6p5p3~-----1--0--5~-----5-5-----| 
|-5----------------------------------------------------------------------------| 



Sequense 2 solo(play over Intro sequense 2) 
|---------------------------------------------------| 
|--------15-17~----------15-17-17b19r17-15--17b19~--| 
|--16-----------14-16----------------------------| 
|---------------------------------------------------| 
|---------------------------------------------------| 
|---------------------------------------------------| 
|---------------------------------------------------| 

|--------------------------------------------------------------------| 
|--------15-17-17b19r17-15---17h18p17p15h17-17b18r17~---15--17--15~--| 
|--14-16-------------------------------------------------------------| 
|--------------------------------------------------------------------| 
|--------------------------------------------------------------------| 
|--------------------------------------------------------------------| 
|--------------------------------------------------------------------| 

|---------------------------------------------------| 
|--------15-15h17-15-14~------14b15~----------------| 
|--14-16--------------------------------------------| 
|---------------------------------------------------| 
|---------------------------------------------------| 
|---------------------------------------------------| 
|---------------------------------------------------| 





Acoustic verse(tocado num violão) 
|---------1---------------1---------------0-------------------------| 
|-----3-----3---3-----3-----3---3-----1-----1---1-----1-------1-----| 
|---2---2-----2-----0---0-----0-----0---0-----0-----0---0---0---0---| 
|-0-----------------------------------------------------------------| 
|-----------------2---------------3---------------------------------| 
|-------------------------------------------------0-------3---------| 
|-------------------------------------------------------------------| 

|---------------------------------------------------------------------| 
|---------3-------------------3---------------3-----------2-3-2-------| 
|-----3-----3-------------3-----3---3-----2-----2---2-----------2---2-| 
|---3---3---------------0---0-----0-----2---2-----2-----2---------2---| 
|-1-----------1-0h1r0-----------------0---------------0---------------| 
|---------------------3-----------------------------------------------| 
|---------------------------------------------------------------------| 

Verse lead (tocada junto a parte acustica) 
|------------------------------------------------------------------| 
|------------------------------------------------------------------| 
|-/14--14----14--12--10--(b9)-10h12~-12----12--10--(b9)-7--9h10~-10----| 
|------------------------------------------------------------------| 
|------------------------------------------------------------------| 
|------------------------------------------------------------------| 
|------------------------------------------------------------------| 

|----------------------------------------------------| 
|----------------------------------------------------| 
|-10--(b9)-(b9)-7--7h(b9)-6------6~-------6--7--6----------| 
|--------------------------------------------7-------| 
|-----------------------------------------------7----| 
|----------------------------------------------------| 
|----------------------------------------------------| 



Prechorus(acoustic) 
|-------------------------------------------------------------------| 
|-------------------------------------------------------------------| 
|---------2-------------------------------1---------------1---------| 
|-----3-----3---3-----3-------3-------2-----2---2-----2-----2---2---| 
|---3---3-----3-----3---3---3---3---2---2-----2-----2---2-----2-----| 
|-1---------------3-------1-------0---------------0-----------------| 
|-------------------------------------------------------------------| 

Prechorus(lead) - with added lower octave as harmony 
|---16b17~---17~--------16b17~---16b17r16---------------------------| 
|--------------------------------------------17---------------------| 
|-------------------------------------------------16~---------------| 
|-------------------------------------------------------------------| 
|-------------------------------------------------------------------| 
|-------------------------------------------------------------------| 
|-------------------------------------------------------------------| 



Chorus Rhythm 
|---------------------------------------------------------------------------| 
|---------------------------------------------------------------------------| 
|---------------------------------------------------------------------------| 
|-7----7--7--7--7--5--3----3--3--3--3--5------------------------------------| 
|-7----7--7--7--7--5--3----3--3--3--3--5------------------------------------| 
|-5----5--5--0--5--3--1----1--1--0--1--3--3----3--3--3--3--3--7----7--7---7-| 
|-----------------------------------------1----1--1--1--0--1--5----5--5---5-| 

Chorus Lead 
|------------------------------------------------------------------------------| 
|------------------------------------------------------------------------------| 
|------------------------------------------------------------------------------| 
|-----------------------------------------------------------------------------:|x2 
|---------------------8~-----------------7~------7---8---7--5h7------5~--------| 
|-~-----5---7---8-------------5--7--8----------------------------------------| 
|------------------------------------------------------------------------------| 

Play Verse(with bass-solo) 
Play Prechorus 
Play Chorus 



Solo Rhythm Part1 
|------------------------------------------------------------------------------| 
|------------------------------------------------------------------------------| 
|------------------------------------------------------------------------------| 
|------------------------------------------------------------------------------| 
|-11---11-11----11-(b9)-7----7--7-----7(b9)-7----7--7-----------6----6--6--6--6---| 
|-(b9)---(b9)-(b9)-0--(b9)-7--5----5--5--0--5/7--7----7--7--0--7--7--4----4--4--4--4---| 
|-(b9)---(b9)-(b9)-0--(b9)-7--5----5--5--0--5/7--5----5--5--0--4--5--4----4--4--4--4---|		   
AcordesyTabs.com © 2008 Acordes y Tablaturas para guitarra. Tabs and Chords for guitar. Aviso Legal - Contacto
El uso de este sitio está sujeto a la aceptación de los términos y condiciones (21 usuarios online)