tablaturas, partituras y acordes para guitarra
Busca por banda/artista:
 
y/o título de la canción:
A B C D E F G H I J K L M N O P Q R S T U V W X Y Z 0 1 2 3 4 5 6 7 8 9 / Top 100 tabs
Categorías
Usuarios
usuario:
Darse de alta
password:
Artistas más visitados
Publicidad
TOP acordes y tablaturas de Nevermore


Estás en: Inicio > Letra N > Acordes y tablaturas de Nevermore > Insignificant
Insignificant
de Nevermore
Puntúa este acorde/tab:      
(0.6/5)
Reportar este acorde/tab
  Añadir a tus favoritos
  Imprimir
Preste bastante atenção nas formas de mão ele usa bastante acordes diminuto.
Part A (Play twice, then B)
|------0---0---------------0---------------------0----------0--------|
|--------4---4-5-----5-------4-5--------2------2---2---2--2---2------|
|----------6-------6---6---6----------3---5----------5---5------0----|
|-----------------------------------------------------------------0--|
|----4-------------------4------------------/3-----------------------|
|--0-------------0---------------0-/5--------------------------------|

|------0---0---------------0-------------------0-----------0---------|
|--------4---4-5-----5-------4-5-------4-----2---2---2---2---2-------|
|----------6-------6---6---6---------5---7-------5---5-------0-----|
|----------------------------------------------------------------0---|
|----4-------------------4---------6---------------------------------|
|--0-------------0---------------0-----------------------------------|

Part B (Play once)
|--(b9)----(b9)7-5-----5-----------------------5-------------------------|
|--7---7-------5-----5-------5---6-------6---6--5------5-5-5---------|
|--0-0---------6-------6---6-----7-----7--------4----4---4---4-------|
|--------------7---------7-------7---7----------6--6-----6-----------|
|--------------------------------------------------------------------|
|--------------------------------------------------------------------|

|--------------------------------------------------------------------|
|--4------4------4---44-3--1------2------2---------------------------|
|--3----3---3----3---33-4--2----1---1----1---------------------------|
|--5--5-------5--5---55-5--3--3-------3--0---------------------------|
|--------------------------------------------------------------------|
|--------------------------------------------------------------------|

Part C
|--------------------------------------------------------------------|
|--------------------------------------------------------------------|
|--6-------------------6---------------------------------------------|
|--6-------6--(b9)7------6-------6--(b9)7-slide-------------------------|
|--4---444-4--(b9)7--555-4---444-4--(b9)7--down-------------------------|
|--4---444-4--7-5--555-4---444-4--7-5-------------------------------|
       ...         ...     ...

Repeat part A twice again, then instead of B, play this once :
|------0---0---------------0---------------------0-------------------|
|--------4---4-5-----5-------4-5--------2------2---------------------|
|----------6-------6---6---6----------3---5--------5-----------------|
|--------------------------------------------------------------------|
|----4-------------------4------------------/3-----------------------|
|--0-------------0---------------0-/5--------------------------------|

Chorus
|--------------------------------------------------------------------|
|--------------------------------------------------------------------|
|--6--666-(b9)(b9)99(b9)-4-444-7-7-777-----------------------------------|
|--6--666-(b9)(b9)99(b9)-4-444-7-7-777-----------------------------------|
|--4--444-7-7-777--2-222-5-5-555--2-Last---------------------------|
|--4--444-7-7-777--2-222-5-5-555--0-time---------------------------|

Play A once with this solo : (har=harmonic)                                                                   |
|--------------------------------------------------------------------|
|--------------------------------------------------------------------|
|--------------------------------------------------------------------| 
|--------------------------------------------------------------------| 
|------------------------3h6p4(har,bend,+vib)--/6har~-/4har~-/3har~--|
|--4h7p5~~-/9har~-/8har~---------------------------------------------|

|--------------------------------------------------------------------|
|--------------------------------------------------------------------|
|--------------------------------------------------------------------|
|--------------------------------------------------------------------|
|--0h3(har+pulloff quickly)------------------------------------------|
|--------------------------------------------------------------------|

Play A once more & B again

Play Chorus

Play part C, then this solo :
|----(bend-off-fretboard)--------------------------------------------|
|--12b-12b12b12b~~--------(b9)10-12-10-9b-9b+r----(b9)-------------------|
|-----------------------10-------------------12---12~~slide-down----| 
|---------------------11---------------------------------------------| 
|--------------------------------------------------------------------|
|--------------------------------------------------------------------|

|--------------------------------------------------------------------|
|--------------------------------------------------------------------|
|--8-(b9)11-8h9p8----8-------------------------------------------------| 
|---------------11--11-(b9)8h9p8h9p8----8------10-9~~------------------| 
|----------------------------------11---11-(b9)------------------------|
|--------------------------------------------------------------------|

|--------------------------------------------------------------------|
|--------------------------------------------------------------------|
|--------------------------------------------------------------------| 
|--------------------------------------------------------------------| 
|--/12-10-10h11-(b9)7-(b9)7-6-7-5-3-5-4-2-2/4-4har~~---------------------|
|--------------------------------------------------------------------|

Play A once more

Repeat Chorus

Part C		   
AcordesyTabs.com © 2008 Acordes y Tablaturas para guitarra. Tabs and Chords for guitar. Aviso Legal - Contacto
El uso de este sitio está sujeto a la aceptación de los términos y condiciones (27 usuarios online)