tablaturas, partituras y acordes para guitarra
Busca por banda/artista:
 
y/o título de la canción:
A B C D E F G H I J K L M N O P Q R S T U V W X Y Z 0 1 2 3 4 5 6 7 8 9 / Top 100 tabs
Categorías
Usuarios
usuario:
Darse de alta
password:
Artistas más visitados
Publicidad
TOP acordes y tablaturas de Gipsy kings


Cataluna
de Gipsy kings
Puntúa este acorde/tab:      
(0.6/5)
Reportar este acorde/tab
  Añadir a tus favoritos
  Imprimir
Capo 3 
 
Intro 1:	 
 
|---0---0-------0---0---|---0---0-------0---0---| 
|-4---2-------4---2-----|-4---2-------4---2-----| 
|-3-------3---3-------3-|-3-------3---3-------3-| 
|-1-----------2---------|-1-----------2---------| 
|-----------------------|-----------------------| 
|-----------------------|-----------------------| 
 
Intro 2(2x): 
 
 E      F#     E     F#       E     F#       D# 
|-----------------------------------------------0---0---| 
|-----------------------------------------------------4-| 
|-4-3-1----1------------------4-3-1----1----------3-----| 
|-------4----4-2-4-2-4-2-4-4--------4----4-2-1----------| 
|-------------------------------------------------------| 
|-------------------------------------------------------| 
 
 
Verse 1 (2x): 
 C#m        F#                  C#m            F# 
|----------------------2--4p2-0|-------------------------2-4p2-0---2-2-| 
|-7p5p4h5-------2--4h5---------|-7p5p4h5h5h5-------2-4h5---------4-----| 
|-----------3h4----------------|---------------3h4---------------------| 
|------------------------------|---------------------------------------| 
|------------------------------|---------------------------------------| 
|------------------------------|---------------------------------------| 
 B                 E                C#m              D# 
                             {simplified........} 
|-----2-2-2--------7-6-4-----|-------4-2-0-----------------------| 
|-4/5-------5-4--4-------7-5-|-0-2-4-------4-2-0-----------------| 
|----------------------------|---------------------2p0-----------| 
|----------------------------|-------------------------4p2p1p0h1-| 
|----------------------------|-----------------------------------| 
|----------------------------|-----------------------------------| 
 
 
Verse 2: 
G#m       F#      E             D#                      G#m        F# 
|-----------------|----------------------|------0----------------------------2---2| 
|-----0h2---------|0h2-------------------|--2-4---2p0---2----0h2p0---------4---4--| 
|---------1----3--|----1---3--0-0--------|3-----------3------------3p1------------| 
|{6----------4----|------4--------2p1p0h1|-----------------------------4----------| 
|}6---------------|----------------------|----------------------------------------| 
|'4---------------|----------------------|----------------------------------------| 
 
                 E                 D# 
|----------------------------------0---|  
|5p4p2p0-----------------------2h4---4-|  
|--------3p1---1-1---------------------|  
|------------4-----1h2p1h2p1-----------|  
|--------------------------------------|  
|--------------------------------------|  
 
G#m                F#              E                       D# 
|------4-6-7-7-6/7-7-6-4---|---7p6-7p6p4---------6-4-6-4-2/4--2-0---| 
|-----4------------------7-|-7-----------7-5---4------------------4-| 
|----4---------------------|----------------------------------------| 
|---6----------------------|----------------------------------------| 
|--6-----------------------|----------------------------------------| 
|-4------------------------|---------------------------------------| 
 
         G#m                      F# 
|--------------7-6---(b9)7-6-11-(b9)7-12-11-(b9)---(b9)-----------| 
|--7h5-(b9)7-5-----(b9)---------------------12---12-11-(b9)---| 
|------------------------------------------------------11-| 
|---------------------------------------------------------| 
|---------------------------------------------------------| 
|---------------------------------------------------------| 
 E                                  D# 
                                         {bass...............} 
|-11-(b9)7------11-(b9)7------11-11-11--11-11|-------------------| 
|--(b9)----11-(b9)-(b9)----11-(b9)-(b9)-(b9)-(b9)--(b9)-9|-------------------| 
|----------------------------------------|-------------------| 
|----------------------------------------|-1-1---------------| 
|----------------------------------------|-----4-2-2-1-------| 
|----------------------------------------|-------------4-4-2-| 
 
Intro 2(2x) 
 
Verse 3: 
 C#m              F#                C#m           F#4 F# 
                                {simplified.....} 
|-------------------------------|-------------------'2---------| 
|-5-4---------------------------|-5-7-5-7-7-5p4-----{2---------| 
|-----6p4h6---4h6p4-4-----------|---------------6---}4-4-3-4-6-| 
|---------------------8p6-8p6p4-|------------------------------| 
|-------------------------------|------------------------------| 
|-------------------------------|------------------------------| 
 B                    E                C#m                       D# 
{simplified.......} 
|-----2-2---2-2-----------------|-------7-6-4------------------------------| 
|-4-5-----5-----5-4---2---0---0-|-0-2-4-------5p4--------------------------| 
|---------------------------3---|-----------------6p4--3p1-1---------------| 
|-------------------------------|----------------------------4-2-2p1p0-2p1-| 
|-------------------------------|------------------------------------------| 
|-------------------------------|------------------------------------------| 
 C#m             F#               C#m                     F# 
|------------9p7h(b9)7----------|----4------------------4-7-(b9)7-6-7-6-4---| 
|-7p5-4/5--7---------11p(b9)7---|-7----7-5p4h5----4-5-7-----------------7-| 
|-6-------------------------(b9)|-6-------------6-------------------------| 
|-6---------------------------|-----------------------------------------| 
|-----------------------------|-----------------------------------------| 
|-----------------------------|-----------------------------------------| 
      B                   E            C#m                        D# 
|-----2-------------0h2p0-------------|-----------------------------------------| 
|-4h5---5h4-2-5h4---------5p4-2p0-----|-----------------------------------2-4-4-| 
|---------------------------------3p1-|-1-3-4----1-3------0---------------------| 
|-------------------------------------|--------4------2-4---4-2-1-2-1-0-1-------| 
|-------------------------------------|-----------------------------------------| 
|-------------------------------------|-----------------------------------------| 
 
Verse 4: 
 G#m      F#      E           D# 
|-----------------|----------------------------| 
|-----0h2---------|0h2--------4h0---0-2------| 
|---------1-----4-|----1---4--------3----------| 
|-{6----------3---|------3-----------------1-1-| 
|-}6--------------|----------------------------| 
|-'4--------------|----------------------------| 
 G#m             F#                 E                       D# 
|------------------------------|------------------------------------0-4-6-4-6-| 
|------------------------------|0-2-4--2-2-2-0-0------------------4-----------| 
|-1-----1------1---1-------1h3-|-----------------3-1--1-1-1-------------------| 
|---4-4----4-4---4--4---2p1----|----------------------------4p2p1-------------| 
|------------------------------|----------------------------------------------| 
|------------------------------|----------------------------------------------| 
        G#m                 F#             E               D# 
|-4-6-7-11-11-11-11-11-11---4-4-4-4-4-4-4-|-2-0-2-0-2-2-2----------------| 
|--------(b9)-(b9)-(b9)-(b9)-(b9)-(b9)--2-2-2-2-2-2-2-|----------------5-4-5-4-5-5-5-| 
|-----------------------------------------|------------------------------| 
|-----------------------------------------|------------------------------| 
|-----------------------------------------|------------------------------| 
|-----------------------------------------|------------------------------| 
       G#m                  F#                           E               D# 
|---------------------------7p6-4-2-0----------------|---------------------4---4-| 
|-5-4-2-5-4---2-5-4---2-5-4------------0-----0---0---|-----------------------3---| 
|----------------------------------------3-----3---0-|-------------0-------------| 
|----------------------------------------------------|-4-2---1-2-4---4-2-1-------| 
|----------------------------------------------------|---------------------------| 
|----------------------------------------------------|---------------------------| 
 
{bass...............}  Intro(2x) 
|-------------------| 
|-------------------| 
|-------------------| 
|-1-1---------------| 
|-----4-2-2-1-------| 
|-------------4-4-2-|		   
AcordesyTabs.com © 2008 Acordes y Tablaturas para guitarra. Tabs and Chords for guitar. Aviso Legal - Contacto
El uso de este sitio está sujeto a la aceptación de los términos y condiciones (10 usuarios online)