tablaturas, partituras y acordes para guitarra
Busca por banda/artista:
 
y/o título de la canción:
A B C D E F G H I J K L M N O P Q R S T U V W X Y Z 0 1 2 3 4 5 6 7 8 9 / Top 100 tabs
Categorías
Usuarios
usuario:
Darse de alta
password:
Artistas más visitados
Publicidad
TOP acordes y tablaturas de Jethro tull


Estás en: Inicio > Letra J > Acordes y tablaturas de Jethro tull > Thick is a brick
Thick is a brick
de Jethro tull
Puntúa este acorde/tab:      
(0.4/5)
Reportar este acorde/tab
  Añadir a tus favoritos
  Imprimir
D   D7M  G6    Dm7   Dm9  Dm11  Csus2   D    Am
e | - | --2-----2-----0-----5-----5-----------------2-----0-----
B | - | --3-----3-----3-----6-----6-----6-----------3-----1-----
G | - | --2-----2-----0-----5-----5-----0-----0-----2-----2-----
D | - | --0-----0-----0-----0-----0-----0-----0-----0-----2-----
A | - | --------4-----2-----0-----7-----5-----3-----------0-----
E | - | --------------3-----------------------------------------
 

   Asus2  Dsus2   D4   A   A4   C    Em     G
e | - | --0-----0--------3-----0-----0-----0-----0-----3--
B | - | --0-----3--------3-----2-----3-----1-----0-----0--
G | - | --2-----0--------2-----2-----2-----0-----0-----0--
D | - | --2-----0--------0-----2-----2-----2-----2-----0--
A | - | --0--------------------0-----0-----3-----2-----2--
E | - | -----------------------------------------0-----3--

    Bm    F#   Bb[1]  C[3]  Db[4] D[5] Eb[6]  E[7]  F[8]
e | - | --2-----2-----1-----3-----4-----5-----6-----7-----8-----
B | - | --3-----2-----3-----5-----6-----7-----8-----(b9)---10-----
G | - | --4-----3-----3-----5-----6-----7-----8-----(b9)---10-----
D | - | --4-----4-----3-----5-----6-----7-----8-----(b9)---10-----
A | - | --------------1-----3-----4-----5-----6-----7-----8-----
E | - | --------------1-----3-----4-----5-----6-----7-----8-----

  C7M   D/F   Am7    B   Em11   C/G   Bb   Bbsus2 Bb4
e | - | --0-----2-----3-----2-----0-----0-----1-----1-----1-----
B | - | --0-----3-----1-----4-----0-----1-----3-----1-----4-----
G | - | --0-----2-----2-----4-----0-----0-----3-----3-----3-----
D | - | --2-----3-----2-----4-----0-----2-----3-----3-----3-----
A | - | --3-----------0-----------0-----3-----------------------
E | - | --------------------------0-----3-----------------------

     Db    E
e | - | --1-----0-----
B | - | --2-----0-----
G | - | --1-----1-----
D | - | --3-----2-----
A | - | --------2-----
E | - | --------0-----
  
D D7M G6

Dm7 Dm9 Dm11 C9

D D7M G6

Dm7 Dm9 Dm11 C9

D            Am          G6           D   D7M G6  D D7M G6
Really don't mind if you sit this one out.
   D            Am             G6         D   D7M G6  D D7M G6
My words but a whisper -- your deafness a SHOUT.
  D            Am         G6             D   D7M G6  D D7M G6
I may make you feel but I can't make you think.
     D              Am             G6            D   D7M G6     D D7M G6
Your sperm's in the gutter -- your love's in the sink.
       G6              A9    D D9 D D9 D D4 D
So you ride yourselves over the fields
        G6            A9  D D9 D D9 D D4 D
and you make all your animal deals
         G6             A9       D D9 D D9 D D4 D
and your wise men don't know how it feels
A A9 A A9 A A4 A  A9 A

      A          D D7M G6      D D7M G6      D D7M G6      D D7M G6
to be thick as a brick.
        D           Am          G6        D D7M G6    D D7M G6
And the sand-castle virtues are all swept away
       D        Am
in the tidal destruction
    G6      D D7M G6    D D7M G6
the moral melee.
     D        Am              G6       D D7M G6    D D7M G6
The elastic retreat rings the close of play
       D           Am
as the last wave uncovers
    G6         D D7M G6    D D7M G6
the newfangled way.
         G6            A9       D D9 D D9 D D4 D
But your new shoes are worn at the heels
     G6          A9   D D9 D D9 D D4 D
and your suntan does rapidly peel
         G6             A9       D D9 D D9 D D4 D
and your wise men don't know how it feels
A A9 A A9 A A4 A  A9 A

      A          D D7M G6    D D7M G6
to be thick as a brick.
Dm7 Dm9 Dm11  Dm7 Dm9 C9   D

        D           Am      C              Em     G
And the love that I feel        is so far away:
                       Bm         D   F#   G
I'm a bad dream that I just had today --
                   A A9 A
and you shake your head
    A          D  D7M G6     D D7M G6
and say it's a shame.
Dm7 Dm9 Dm11

Dm7 Dm9 Dm11

Dm7 Dm9 Dm11                 Dm7 Dm9 Dm11
       Spin me back down the years
        Dm7 Dm9 Dm11       Dm7 Dm9 Dm11
and the days         of my youth.
Dm7 Dm9          Dm11     Dm7   Dm9     Dm11
        Draw the lace and black curtains
         Dm7 Dm9 Dm11      Dm7   Dm9    Dm11
and shut out           the whole truth.
Dm7 Dm9      Dm11               Dm7 Dm9 Dm11
    Spin me down the long ages: let them sing the song.
Dm7 Dm9 Dm11

Dm7 Dm9 Dm11

Dm7 Dm7 D D9 D

Am      D G

Am      D G

Am      D G

Am      D G
{ 5/0 5/2 5/3 5/2 5/3 4/0 6/3 5/2  
   A   B   C   B   C   D   G   B  }

Am  D G         Am          D G
See   there!  A son is born --
       Am            D G      Am    D G
and we pronounce him   fit to fight.
          Am          D  G   Am        D G
There are black-heads on his shoulders,
       Am      D    G      Am    D G
and he pees himself in the night. 		   
AcordesyTabs.com © 2008 Acordes y Tablaturas para guitarra. Tabs and Chords for guitar. Aviso Legal - Contacto
El uso de este sitio está sujeto a la aceptación de los términos y condiciones (27 usuarios online)