tablaturas, partituras y acordes para guitarra
Busca por banda/artista:
 
y/o título de la canción:
A B C D E F G H I J K L M N O P Q R S T U V W X Y Z 0 1 2 3 4 5 6 7 8 9 / Top 100 tabs
Categorías
Usuarios
usuario:
Darse de alta
password:
Artistas más visitados
Publicidad
TOP acordes y tablaturas de Incubus


Estás en: Inicio > Letra I > Acordes y tablaturas de Incubus > Anti-gravity
Anti-gravity
de Incubus
Puntúa este acorde/tab:      
(0.2/5)
Reportar este acorde/tab
  Añadir a tus favoritos
  Imprimir
intro 
(play 3x) 
---------------------------------|-----------------------------------------| 
---------------------------------|-----------------------------------------| 
---------------------------------|-----------------------------------------| 
---------------------------------|-----------------------------------------| 
-2h5-2-0h2-------2h5-2-0h2-------|-2h5-2-0h2-------2h5-2-0h2-0-------------| 
-----------2-2h5-----------3-3h5-|-----------2-2h5-------------3h5-3-2h3-2-| 
 
                             (play 2x) 
---------------------------------|-----------------------------------------| 
---------------------------------|-----------------------------------------| 
---------------------------------|-----------------------------------------| 
---------------------------------|-----------------------------------------| 
-2h5-2-0h2-------2h5-2-0h2-------|-2h5-2-0h2-------2h5-2-0h2-2-2-2-2-2-2-2-| 
-----------2-2h5-----------3-3h5-|-----------2-2h5-------------------------| 
 
 
---------------------------------------------------| 
-12h15p12------------------------------------------| 
----------14---------------------------------------| 
-------------12h14p12----12-12s14s12----12---------| 
----------------------14-------------14------------| 
---------------------------------------------------| 
 
verse 
Bm (strum throughout) 
 
...tonight        ...possible   ...phone   ...fly 
...myself         ...canopy     ...phone   ...be 
---------------------------------------------------| 
---------------------------------------------------| 
-7-(b9)9s11-(b9)7s(b9)7----------------------------------| 
------------------(b9)-------------------------------| 
---------------------------------------------------| 
---------------------------------------------------| 
 
On the last time through the verse, right before the chorus, Mike Einziger,  
their guitarist plays something that sounds like he's using a harmonics or  
octave effect.  This is the best I can figure what it is he's playing,  
written for clean electric. 
 
-17----15----14----12----10---(b9)--7----------------| 
----16----14----13----11----(b9)--8---6--------------| 
---------------------------------------------------| 
---------------------------------------------------| 
---------------------------------------------------| 
---------------------------------------------------| 
 
chorus 
Bm A C7 
 
                             (play 2x) 
---------------------------------|-----------------------------------------| 
---------------------------------|-----------------------------------------| 
---------------------------------|-----------------------------------------| 
---------------------------------|-----------------------------------------| 
-2h5-2-0h2-------2h5-2-0h2-------|-2h5-2-0h2-------2h5-2-0h2-2-2-2-2-2-2-2-| 
-----------2-2h5-----------3-3h5-|-----------2-2h5-------------------------| 
 
                       (repeat 4x, 2nd time through) 
---------------------------------------------------| 
---------------------------------------------------| 
---------------------------------------------------| 
------------------------2-2-2--2-2-2---------------| 
------------------------2-2-2--2-2-2---------------| 
-3-3-3--2h3-2-0-2-2-2---0-0-0--0-0-0---------------| 
 
verse 
chorus 
 
solo 
Bm A 
 
chorus 
 
   Bm         A        C7 
e---7---  e---5---  e---7--- 
B---7---  B---5---  B---5--- 
G---7---  G---6---  G---6---		   
AcordesyTabs.com © 2008 Acordes y Tablaturas para guitarra. Tabs and Chords for guitar. Aviso Legal - Contacto
El uso de este sitio está sujeto a la aceptación de los términos y condiciones (34 usuarios online)