tablaturas, partituras y acordes para guitarra
Busca por banda/artista:
 
y/o título de la canción:
A B C D E F G H I J K L M N O P Q R S T U V W X Y Z 0 1 2 3 4 5 6 7 8 9 / Top 100 tabs
Categorías
Usuarios
usuario:
Darse de alta
password:
Artistas más visitados
Publicidad
TOP acordes y tablaturas de Vicente fernandez


Estás en: Inicio > Letra V > Acordes y tablaturas de Vicente fernandez > De que manera te olvido
De que manera te olvido
de Vicente fernandez
Puntúa este acorde/tab:      
(0.7/5)
Reportar este acorde/tab
  Añadir a tus favoritos
  Imprimir
-(b9)-12-(b9)-10-(b9)-10-14-12-11-12-10-12-10-12-10-(b9)-10-(b9)- 
-10-14-10-14-10-12-15-14-13-14-12-14-12-14-12-10-12-10-  
-------------------------------------------------------  
-------------------------------------------------------  
-------------------------------------------------------  
-------------------------------------------------------  
 
------------------------------16-17-  
-10-12-13-12-12-10-10-(b9)10-17-------  
------------------------------------  
------------------------------------  
------------------------------------  
------------------------------------  
 
  Am  
Veràs que no has cambiado  
 
estoy enamorado  
                   E7  
tal vez igual que ayer  
 
quizàs te comentaron  
 
que a solas me miraron  
              Am  
llorando tu querer.  
 
Y no me da verguenza  
                    A7  
que aùn con la experiencia  
               Dm  
que la vida me diò  
                  Am  
a tu amor yo me aferro  
                   E7  
y aunque ya no lo tengo  
                Am    Dm  
no te puedo olviadar.  
                  Am  
a tu amor yo me aferro  
                   E7  
y aunque ya no lo tengo  
                Am     A  
no te puedo olviadar.  
 

                   E7  
De què manera te olvido  
                    A  
de que manera yo entierro  
              E7  
Este cariño maldito  
               D  
que a diario atormenta  
       A  
a mi corazòn.  
 

                 E7  
De que manera te olvido  
                         A  
si te miro en cualquier gente  
                     E7  
y tù no quieres ni verme  
               D    E7  
por que te conviene  
                A  
callar nuestro amor.  
 
-(b9)-12-(b9)-10-(b9)-10-14-12-11-12-10-12-10-12-10-(b9)10--(b9)-  
-10-14-10-14-10-12-15-14-13-14-12-14-12-14-12-10-12-10-  
-------------------------------------------------------  
-------------------------------------------------------  
-------------------------------------------------------  
-------------------------------------------------------  
 
-17-15-13-12-------12-15-14-13-17------------------  
-------------15-14---------------------------------  
---------------------------------------------------  
---------------------------------------------------  
---------------------------------------------------  
---------------------------------------------------  
 
                   E7  
De què manera te olvido  
                    A  
de que manera yo entierro  
              E7  
Este cariño maldito  
               D  
que a diario atormenta  
       A  
a mi corazòn.  
 

                 E7  
De que manera te olvido  
                         A  
si te miro en cualquier gente  
                     E7  
y tù no quieres ni verme  
               D    E7  
por que te conviene  
                A  
callar nuestro amor. 		   
AcordesyTabs.com © 2008 Acordes y Tablaturas para guitarra. Tabs and Chords for guitar. Aviso Legal - Contacto
El uso de este sitio está sujeto a la aceptación de los términos y condiciones (17 usuarios online)