tablaturas, partituras y acordes para guitarra
Busca por banda/artista:
 
y/o título de la canción:
A B C D E F G H I J K L M N O P Q R S T U V W X Y Z 0 1 2 3 4 5 6 7 8 9 / Top 100 tabs
Categorías
Usuarios
usuario:
Darse de alta
password:
Artistas más visitados
Publicidad
TOP acordes y tablaturas de The forecast


Estás en: Inicio > Letra T > Acordes y tablaturas de The forecast > And we all return to our roots
And we all return to our roots
de The forecast
Puntúa este acorde/tab:      
(0.5/5)
Reportar este acorde/tab
  Añadir a tus favoritos
  Imprimir
Tuning - Drop D

.  - palm mute
/  - slide up and down to
b  - Bend
() - Natural harmonics
*  - Pinch harmonics
h  - Hammer
p  - Pull off
"  - Tremolo Picking
x  - Mute

Intro
(0:01 - 0:06)
Guitar 1 and 2
e|------------------------------|
B|------------------------------|
G|--7-7-------7-7-------7-7-----|
D|--7-7--7-7--7-7--7-7--7-7-7-7-|
A|--5-5--7-7--5-5--7-7--5-5-7-7-|
D|-------7-7-------7-7------7-7-|

Verse
Guitar 1
(0:07 - 0:15)
e|---------------------------------|
B|---------------------------------|
G|---------------------------------|
D|-(b9)(b9)(b9)(b9)(b9)(b9)7-7-7-4-4-4-4-7-7-7-| x3
A|---------------------------------|
D|---------------------------------|
(0:16 - 0:18)
e|---------------------------------|
B|---------------------------------|
G|---------------------------------|
D|-4-4-4-4-4-4-2-2-2-4-4-4-4-4-4-4-| x1
A|---------------------------------|
D|---------------------------------|
(0:18 - 0:27)
e|---------------------------------|
B|---------------------------------|
G|---------------------------------|
D|-(b9)(b9)(b9)(b9)(b9)(b9)7-7-7-4-4-4-4-7-7-7-| x3
A|---------------------------------|
D|---------------------------------|
(0:28 - 0:29)
e|--------------------|
B|--------------------|
G|--------------------|
D|-4-4-4-4-4-4-2-2-2--| x1
A|--------------------|
D|--------------------|

Guitar 2
(0:07 - 0:24)
e|-------------------------|
B|-------------------------|
G|-------------------------|
D|-------------0-x13-------| x3
A|--------0-x3-------0-x3--|
D|--4-x13------------------|
pm  .     .    .     .
(0:25 - 0:30)
e|------------------------|
B|------------------------|
G|------------------------|
D|-------------0-x8-0-x8--| x3
A|--------0-x3------------|
D|--4-x13-----------------|
pm  .     .    .

Guitar 3
(0:07 - 0:30)
e|-----|
B|-----|
G|-----|
D|-----| x4
A|-----|
D|--4b-|

Chorus
(0:31 - 0:55)
Guitar 1
e|-----------------------------|
B|-----------------------------|
G|-----------------------7-----|
D|--7------4------2------x-x16-| x2
A|--7-x16--4-x16--2-x16--5-----|
D|--7------4------2------------|

Guitar 2
e|-----------------------------|
B|-----------------------------|
G|-----------------------------|
D|--7------4------2------0-----| x2
A|--7-x16--4-x16--2-x16--0-x16-|
D|--7------4------2------0-----|

Verse (0:55 - 1:18)

Chorus (1:19 - 1:43)

Bass solo/Bridge
(1:43 - 2:19)
G|-----------------------------------------------------------|
D|-----------------------------------------------------------| x3
A|-----------------------------------------------------------|
D|--4-x13--7-x3--2-x8--2-4-2-2-4-2--0-x8--/12x8--0-x8--/12x8-|

Guitar 1
(1:55 - 2:04)
e|---------------------------------|
B|---------------------------------|
G|---------------------------------|
D|-(b9)(b9)(b9)(b9)(b9)(b9)7-7-7-4-4-4-4-7-7-7-| x3
A|---------------------------------|
D|---------------------------------|
pm . . . . . . . . . . . . . . . .

(2:04 - 2:07)
e|---------------------------------|
B|---------------------------------|
G|---------------------------------|
D|-4-4-4-4-4-4-2-2-2-4-4-4-4-4-4-4-| x1
A|---------------------------------|
D|---------------------------------|
pm . . . . . . . . . . . . . . . .

(2:07 - 2:16)
e|---------------------------------|
B|---------------------------------|
G|---------------------------------|
D|-(b9)(b9)(b9)(b9)(b9)(b9)7-7-7-4-4-4-4-7-7-7-| x3
A|---------------------------------|
D|---------------------------------|
pm . . . . . . . . . . . . . . . .

(2:16 - 2:19)
e|---------------------------------|
B|---------------------------------|
G|---------------------------------|
D|-4-4-4-4-4-4-2-2-2-4-4-4-4-4-4-4-| x1
A|---------------------------------|
D|---------------------------------|

Guitar 2
(1:43 - 2:19)
e|----|
B|----|
G|-7~-|
D|-7~-| x3
A|-5~-|
D|----|

Outro
(2:19 - 3:08)
Guitar 1
e|-----------------------------|
B|-----------------------------|
G|-----------------------7-----|
D|--7------4------2------x-x16-| x4
A|--7-x16--4-x16--2-x16--5-----|
D|--7------4------2------------|

Guitar 2
e|-----------------------------|
B|-----------------------------|
G|-----------------------------|
D|--7------4------2------0-----| x4
A|--7-x16--4-x16--2-x16--0-x16-|
D|--7------4------2------0-----|

End On
e|----|
B|----|
G|-7~-|
D|-7~-|
A|-5~-|
D|----|		   
AcordesyTabs.com © 2008 Acordes y Tablaturas para guitarra. Tabs and Chords for guitar. Aviso Legal - Contacto
El uso de este sitio está sujeto a la aceptación de los términos y condiciones (64 usuarios online)