tablaturas, partituras y acordes para guitarra
Busca por banda/artista:
 
y/o título de la canción:
A B C D E F G H I J K L M N O P Q R S T U V W X Y Z 0 1 2 3 4 5 6 7 8 9 / Top 100 tabs
Categorías
Usuarios
usuario:
Darse de alta
password:
Artistas más visitados
Publicidad
TOP acordes y tablaturas de Merle haggard


Estás en: Inicio > Letra M > Acordes y tablaturas de Merle haggard > That's the way love goes
That's the way love goes
de Merle haggard
Puntúa este acorde/tab:      
(0.4/5)
Reportar este acorde/tab
  Añadir a tus favoritos
  Imprimir
INTRO: 
 
--12------------------------- | -12-------------------------- |  
--(b9)----------10--(b9)--------- | -(b9)----------10--(b9)---------- |  
--(b9)--(b9)--11----------11--(b9)- | -(b9)--(b9)--11----------11--(b9)-- |  
--(b9)------------------------- | -(b9)-------------------------- |  
--11--11--11--11--11--11--11- | -11--11--11--11--11--11--11-- |  
----------------------------- | ----------------------------- |  
 
 
--------0-------------0------0--------------0-- |  
-----------0-------------0---0--------------0-- |  
-----1-------------1---------1----2--4--6---1-- |  
-----------------------------2--------------2-- |  
---------------2-------------2----0--2--4---2-- |  
--0--------------------------0--------------0-- |  
 
 
1st VERSE: 
 E                 B 
I've been throwing horse-shoes, 
 A            B 
over my left shoulder, 
 A                E 
I've spent, most all my life, 
F#                 B7 
searching for that four-leaf clover. 
 E            B  
Then you came with me, 
 A         B 
chasing my rainbows, 
 A        E 
Honey, I love you too, 
 B7 
and that's the way love goes. 
 
 
  /=slide up 
 
---------------------------------0-- |  
--7(b9)--7--(b9)-10--(b9)-------------0-- |  
-----------------------2--4--6---1-- |  
--7(b9)--7--(b9)-(b9)--(b9)-------------2-- |  
-----------------------0--2--4---2-- |  
---------------------------------0-- |  
 
 
  CHORUS: 
 
 E                  B 
That's the way love goes babe, 
 A               B 
that's the music God made, 
 A          E 
for all the world to see, 
 F#                 B7 
it's never old, it gro--0--0--ows. 
 E              B 
Losing makes me sorry 
 A                  B 
You say honey don't worry 
 A                E  
Don't you know I love you too, 
 B7                      E 
and that's the way love goes. 
 
 
LEAD:h=hammer r=rake(pull-off) /=slide up =slide down b=bend 
     b*=bend twice b#=bend three times v=vibrate 
 
-------7-7--------------- | --------------------------- |  
--5(b9)------9v---7-5-7b*- | -------5-5--7-5-------7-7-- |  
------------------------- | --4/6------------6/8------- |  
------------------------- | --------------------------- |  
------------------------- | --------------------------- |  
------------------------- | --------------------------- |  
 
 
----------------------------------------- |  
-----------5-5-----7(b9)----------5-5----- |  
--4-4-4h6-------6-------4-4-4h6-------6v- |  
----------------------------------------- |  
----------------------------------------- |  
----------------------------------------- |  
 
 x=muff b^=pick with already bent, then release 
 
------------------------------ |  
--7-5-7v-x-5-7-5-7-7-5-7b^--5- |  
--x--------------------------- |  
--x--------------------------- |  
--x--------------------------- |  
--x--------------------------- |  
 
 
-------7-7----------------- | --------------------------7-----7--7-6-5- |  
--5(b9)------9--5-7-5-7b#- | ------5-5-7-5----5/7-7-7----7------7-6-5- |  
--------------------------- | --4h6---------6--6/8-8-8------8----8-7-6- |  
--------------------------- | ----------------------------------------- |  
--------------------------- | ----------------------------------------- |  
--------------------------- | ----------------------------------------- |  
 
 
----------------------7------------------------------------------------ |  
--5--7r5---5--7--7(b9)----9--5-7r5---5-7------------------------------ |  
---------6--------------------------6-----4h6-4------------4---------1- |  
------------------------------------------------4h6-4--4h6----4h6-4--2- |  
----------------------------------------------------------------------- |  
----------------------------------------------------------------------- |  
 
 ( CHORUS ) then end the song with intro. 		   
AcordesyTabs.com © 2008 Acordes y Tablaturas para guitarra. Tabs and Chords for guitar. Aviso Legal - Contacto
El uso de este sitio está sujeto a la aceptación de los términos y condiciones (33 usuarios online)