tablaturas, partituras y acordes para guitarra
Busca por banda/artista:
 
y/o título de la canción:
A B C D E F G H I J K L M N O P Q R S T U V W X Y Z 0 1 2 3 4 5 6 7 8 9 / Top 100 tabs
Categorías
Usuarios
usuario:
Darse de alta
password:
Artistas más visitados
Publicidad
TOP acordes y tablaturas de Nirvana


Estás en: Inicio > Letra N > Acordes y tablaturas de Nirvana > Smells Like Teen Spirit Solo
Smells Like Teen Spirit Solo
de Nirvana
Puntúa este acorde/tab:      
(0.4/5)
Reportar este acorde/tab
  Añadir a tus favoritos
  Imprimir
#----------------------------------PLEASE NOTE---------------------------------#
#This file is the author's own work and represents their interpretation of the #
#song. You may only use this file for private study, scholarship, or research. #
#------------------------------------------------------------------------------#

Sorry...no guitar in front of me. Its late and i'm tired... very
tired..sooo tired...AHH

Smells like Teen Spirit (Solo)

Nirvana 

By Brian S
  
     F            Bb     G#         C#       
e||-------------------------------------------------||
b||-----4~--6~p4-------4-4b~~-(r4)--2--1~~-2--1~----||
g||-/5-------------------------------------------3--||
d||---------------6~~-------------------------------||
a||-------------------------------------------------||
e||-------------------------------------------------||

e||---------------------------||
b||---------------------------||
g||-1~~--3--3b~~-r3-1--0~~~---||
d||---------------------------||
a||---------------------------||
e||---------------------------||

     F            Bb     G#         C#       
e||-------------------------------------------------||
b||-----4~--6~p4-------4-4b~~-(r4)--2--1~~-2--1~----||
g||-/5-------------------------------------------3--||
d||---------------6~~-------------------------------||
a||-------------------------------------------------||
e||-------------------------------------------------||

                            repeat**********
e||----------------------|---------------------------||
b||----------------------|---------------------------||
g||-1~~--3--3b~~-r3-1--0~|-1--0~-1--0~~-1--0~~-1~--0-||
d||----------------------|---------------------------||
a||----------------------|---------------------------||
e||----------------------|---------------------------||

e||-------------||
b||-------------||
g||-0-----------||
d||---3~~-------||
a||-------------||
e||-------------||

bass line for solo :
  F       Bb      G#       C#    
g------------------------------------------|
d------------------------------------------|
a---------1-1-1-1----------4-4-4/15------|
e-1-1-1-1---------4-4-4-4------------------|
		   
AcordesyTabs.com © 2008 Acordes y Tablaturas para guitarra. Tabs and Chords for guitar. Aviso Legal - Contacto
El uso de este sitio está sujeto a la aceptación de los términos y condiciones (20 usuarios online)