tablaturas, partituras y acordes para guitarra
Busca por banda/artista:
 
y/o título de la canción:
A B C D E F G H I J K L M N O P Q R S T U V W X Y Z 0 1 2 3 4 5 6 7 8 9 / Top 100 tabs
Categorías
Usuarios
usuario:
Darse de alta
password:
Artistas más visitados
Publicidad
TOP acordes y tablaturas de Fall out boy


Estás en: Inicio > Letra F > Acordes y tablaturas de Fall out boy > Take over the breaks over
Take over the breaks over
de Fall out boy
Puntúa este acorde/tab:      
(0.4/5)
Reportar este acorde/tab
  Añadir a tus favoritos
  Imprimir
Gtr.Legends:

b  - bend

/ - slide

h  - hammer-on

.  - palm muting

x  - scratching

~  - let it ring

*  - artificial harmonics

p  - pedal on(wah-wah)



Gtr.Tuning:Standard(Normal)

 

Intro and Verse:

Gtr.1 Only(For Patrick):

e|-------------------------------------------------------|

B|-------------------------------------------------------|

G|---4-----4----4-----4----------4----4---4-----4--------| 8x

D|-------------------------5-------------------------5---|

A|-4-----4---4-------------5-----------------22--22--3---|

E|-----------------44---44-3--2----2----2----------------|

   . .   . . .  .  .. . ..    .  . .  . . .  .. ...  .



Gtr.2 Enters:Don't pretend...

e|--------------------------------|

B|--------------------------------|

G|-66666---------------444444-----|

D|-66666-66666-5-44444-444444-5---|

A|-44444-66666-5-44444-222222-3---|

E|-------44444-3-22222------------|



Chorus:Would you rather be...

e|------------------------------------------------------------|

B|------------------------------------------------------------|

G|-22222-44444---------6666-444---22222-4444---------666-44---| 

D|-22222-44444-7-66666-6666-444---22222-4444-7-66666-666-44---|

A|-00000-22222-7-66666-4444-222---00000-2222-7-66666-444-22---|

E|-------------5-44444-----------------------5-44444----------|



Repeat Verse:

Repeat Chorus:



Bridge prt.1:We do it in the dark...

e|-----------------------------------------------------------------------------------------|

B|-----------------------------------------------------------------------------------------|

G|-----------------------------------------------------------------------------------------|

D|-(b9)9(b9)xxxx--4-44-xxxx-(b9)6--7-77-xxxx--6-xxxx-4-xxxx---9999(b9)44444-(b9)6-777777-6666-4444---|

A|-7-77-xxxx--2-22-xxxx-(b9)6--7-77-xxxx--4-xxxx-2-xxxx---77777-22222-(b9)6-777777-4444-2222---|

E|----------------------7-4--5-55-xxxx------------------------------7-4-555555-------------|

   . ..       . ..           . ..                        



Bridge prt.2:Repeat Verse w/Gtr.2:Don't pretend it...



Bridge prt.3:(Gtr.Adlib)

Gtr.1

e|-------------------------|

B|-------------------------|

G|-2222-4444---------------|

D|-2222-4444-6666-6~--4~---|

A|-0000-2222-6666-4~--2~---|

E|-----------4444----------|



Gtr.2:

e|---------------------------------------------------------------------------------

B|---------------------------------------------------------------------------------

G|---------------------------------------------------------------------------------

D|--------4-6-4-6--7(b9)7-6-----------------4-6b-4-6b--7(b9)7-6------------11b-9b----

A|-4-6-7-------------------6-7-------4-6-7---------------------7b-9b-11b-----------

E|-----------------------------(b9)7-------------------------------------------------

   p p p  p p p p





---7----7----7----------7-12*---------------------7---7---7---------------------------------|

-----------7---6-8b-6-----------------------------------7----6-8b--6------------------------|

-(b9)---(b9)--------------6-------(b9)-11-12/14-12b---(b9)--(b9)-----------------6h7-9h10-12p11--9b---|

--------------------------------------------------------------------------------------------|

--------------------------------------------------------------------------------------------|

--------------------------------------------------------------------------------------------|





After Adlib:We do it in the dark...

e|--------------------------------------|

B|--------------------------------------| Repeat Until the songs fades out.Listen to the song

G|--------------------------------------| for timing...

D|-999999(b9)4444444-77777777-6666-4444---|

A|-7777777-2222222-77777777-4444-2222---|

E|-----------------55555555-------------|



End...



The Take Over,The Breaks Over Lyrics:



Verse 1:

Baby, seasons change but people don't

And I, I will be waiting in the back room

I'm falling for old conference people

Headlines and flash (flash, flash) photograpy



Pre-Chorus:

Don't pretend you ever forgot about me

Don't pretend you ever forgot about me



Chorus:

Would you rather be a widow or a divorcee?

Snap your way through fashion magazines

Widow or divorcee?

Don't pretend it, don't pretend

We don't fight fair



Verse 2:

Say your head could be your prison

Then these are just conjugal visits,

People fear the safest deal

This doesn't mean a thing anymore



Repeat Pre-Chorus:

Repeat Chorus:



Don't pretend it, don't pretend



Bridge:

We do it in the dark

with smiles on our faces

words softly we'll conceal

in secret places (x2)



We don't fight fair (x5)



After gtr.adlib:

We do it in the dark

with smiles on our faces

words softly we'll conceal

in secret places (x2)		   
AcordesyTabs.com © 2008 Acordes y Tablaturas para guitarra. Tabs and Chords for guitar. Aviso Legal - Contacto
El uso de este sitio está sujeto a la aceptación de los términos y condiciones (18 usuarios online)