tablaturas, partituras y acordes para guitarra
Busca por banda/artista:
 
y/o título de la canción:
A B C D E F G H I J K L M N O P Q R S T U V W X Y Z 0 1 2 3 4 5 6 7 8 9 / Top 100 tabs
Categorías
Usuarios
usuario:
Darse de alta
password:
Artistas más visitados
Publicidad
TOP acordes y tablaturas de Fall out boy


Fame infamy
de Fall out boy
Puntúa este acorde/tab:      
(0.4/5)
Reportar este acorde/tab
  Añadir a tus favoritos
  Imprimir
Gtr.Legends:

h - hammer-on

~ - let it ring

. - palm muting

x - dead String



Gtr.Tuning:Standard(Normal)



Intro:

Gtr.1

e|---------------------------------------------------|

B|---------------------------------------------------|

G|-5555----------------------------------------------| 2x

D|-5555-6666-4444-5555-6666-3333--5--6-5--6-5--6-5---|

A|-3333-6666-4444-5555-6666-3333--5--6-5--6-5--6-5---|

E|------4444-6666-3333-4444-1111--3--4-3--4-3--4-3---|

                                  .  . .  . .  . .



Gtr.2

e|--------------------------------------------------------------------------------|

B|--------------------------------------------------------------------------------|

G|-12121212-1313--12121212-1313--12121212-88-777777-5555-8888--7--8-7--8-7--8-7---|

D|-xxxxxxxx-xxxx--xxxxxxxx-xxxx--xxxxxxxx-xx-xxxxxx-xxxx-xxxx--x--x-x--x-x--x-x---|

A|-10101010-1111--10101010-1111--10101010-66-555555-3333-6666--5--6-5--6-5--6-5---|

E|--------------------------------------------------------------------------------|

                                                               .  . .  . .  . .



-----------------------------------------------------------------------------------------------|

-----------------------------------------------------------------------------------------------|

-12121212-1313--12121212-1313--12121212--15-13-10-12-8---88-10-12--88-10-8--7--8-7--8-7--8-7---|

-xxxxxxxx-xxxx--xxxxxxxx-xxxx--xxxxxxxx--xx-xx--x-xx-x---xx--x-xx--xx--x-x--x--x-x--x-x--x-x---|

-10101010-1111--10101010-1111--10101010--13-11--8-10-6---66--8-10--66--8-6--5--6-5--6-5--6-5---|

-----------------------------------------------------------------------------------------------|

                                                                            .  . .  . .  . .





Verse 1:I'm a preacher...

Gtr.1

e|--------------------------------------------------------------------|

B|--------------------------------------------------------------------|

G|-55-555-------------------------------------------------------------| 2x

D|-55-555--66-666--44-444--55-555--66-666--33-333--5--6-5--6-5--6-5---|

A|-33-333--66-666--44-444--55-555--66-666--33-333--5--6-5--6-5--6-5---|

E|---------44-444--66-666--33-333--44-444--11-111--3--4-3--4-3--4-3---|

                                                   .  . .  . .  . .





Gtr.2 Enters in the 2nd round of gtr.1:

e|--------------------------------------------------------------------------|

B|--------------------------------------------------------------------------|

G|-55-555--88-888--1010-101010--77-777--88-888-1010-101010--7-8-7-8-7-8-7---|

D|-xx-xxx--xx-xxx---x-x--x-x-x--xx-xxx--xx-xxx--x-x--x-x-x--x-x-x-x-x-x-x---|

A|-33-333--66-666---8-8--8-8-8--55-555--66-666--8-8--8-8-8--5-6-5-6-5-6-5---|

E|--------------------------------------------------------------------------|

                                                            . . . . . . .

      

Chorus:When I home...                                   Signing off...

e|------------------------------------------------      ----------------------------------|

B|------------------------------------------------      ----------------------------------|

G|------------------------------------------------ 2x   ----------------------------------|

D|-5-8-1010-1010-1010-1010---1010-1010-1010-1010-- Then -5-8-7777-999(b9)3333--7777--999(b9)--|

A|-3-6--8-8--8-8--8-8--8-8---1010-1010-1010-1010--      -3-6-7777-999(b9)3333--7777--999(b9)--|

E|----------------------------8-8--8-8--8-8--8-8--      -----5555-7777-1111--5555--7777---|



Pre-Verse 2:

Gtr.1

e|---------------------------------------------------|

B|---------------------------------------------------|

G|-5555----------------------------------------------| 

D|-5555-6666-4444-5555-6666-3333--5--6-5--6-5--6-5---|

A|-3333-6666-4444-5555-6666-3333--5--6-5--6-5--6-5---|

E|------4444-6666-3333-4444-1111--3--4-3--4-3--4-3---|

                                  .  . .  . .  . .



Gtr.2

e|--------------------------------------------------------------------------------|

B|--------------------------------------------------------------------------------|

G|-12121212-1313--12121212-1313--12121212-88-777777-5555-8888--7--8-7--8-7--8-7---|

D|-xxxxxxxx-xxxx--xxxxxxxx-xxxx--xxxxxxxx-xx-xxxxxx-xxxx-xxxx--x--x-x--x-x--x-x---|

A|-10101010-1111--10101010-1111--10101010-66-555555-3333-6666--5--6-5--6-5--6-5---|

E|--------------------------------------------------------------------------------|

                                                               .  . .  . .  . .





Verse 2:I am God's gift...

Play Verse 1



Repeat Chorus:



Bridge:

Gtr.1

e|------------------|

B|------------------|

G|-5~---------------| 2x

D|-5~--7~--3~--5~---|

A|-3~--7~--3~--5~---|

E|-----5~--1~--3~---|



Gtr.2

e|---------------------------------------------------------------------------------------------

B|-----5-----8------8--------------------------------------------------------------8-------8---

G|-4h5---4h5----4h5----4h5-(b9)7--4h5-(b9)7--4h5--7-(b9)-4h5-(b9)7--4h5-(b9)7--4h5-(b9)7---4h5----4h5------ 

D|---------------------------------------------------------------------------------------------

A|---------------------------------------------------------------------------------------------

E|---------------------------------------------------------------------------------------------



------------------------------------|

------------------------------------|

-4h5-7-(b9)-4h5--7-(b9)-4h5--7-(b9)-4h5---|

------------------------------------|

------------------------------------|

------------------------------------|





Repeat Chorus:



Chorus 2:Signing off...

e|---------------------|

B|---------------------|

G|-------44444---------| 4x

D|-77777-44444-33333---|

A|-77777-22222-33333---|

E|-55555-------11111---|



But it went to his...

Gtr.1

e|---------------------------------------------------|

B|---------------------------------------------------|

G|-5555----------------------------------------------| 

D|-5555-6666-4444-5555-6666-3333--5--6-5--6-5--6-5---|

A|-3333-6666-4444-5555-6666-3333--5--6-5--6-5--6-5---|

E|------4444-6666-3333-4444-1111--3--4-3--4-3--4-3---|

                                  .  . .  . .  . .



Gtr.2

e|--------------------------------------------------------------------------|

B|--------------------------------------------------------------------------|

G|-55-555--88-888--1010-101010--77-777--88-888-1010-101010--7-8-7-8-7-8-7---|

D|-xx-xxx--xx-xxx---x-x--x-x-x--xx-xxx--xx-xxx--x-x--x-x-x--x-x-x-x-x-x-x---|

A|-33-333--66-666---8-8--8-8-8--55-555--66-666--8-8--8-8-8--5-6-5-6-5-6-5---|

E|--------------------------------------------------------------------------|

                                                            . . . . . . .



End...





Fame < Infamy Lyrics:



Verse 1:

I'm a preacher

Sweating in the pew

For the salvation

I'm bringing you

I'm a salesman

I'm selling you hooks, and plans

And myself, making demands



Chorus:

When I'm home alone

I just can't stop myself

And you pull my head so close

I am posed with the truth

Signing off I'm alright in bed

I'm better with a pen

The kid was alright

But it went to his head



Verse 2:

I am God's gift

But why would He bless me

Church with without

A conscience acquits

I'm addicted to the way i feel

When I think of you

There's too much green

I feel blue



Chorus:

When I'm home alone

I just can't stop myself

And you pull my head so close

I am posed with the truth



Outro Chorus:

Signing off I'm alright in bed

But I'm better with a pen

I'm alright in bed

But I'm better with a pen

I'm alright in bed

But I'm better with a pen

The kid was alright





But it went to his head



Whoaaaaa		   
AcordesyTabs.com © 2008 Acordes y Tablaturas para guitarra. Tabs and Chords for guitar. Aviso Legal - Contacto
El uso de este sitio está sujeto a la aceptación de los términos y condiciones (26 usuarios online)