tablaturas, partituras y acordes para guitarra
Busca por banda/artista:
 
y/o título de la canción:
A B C D E F G H I J K L M N O P Q R S T U V W X Y Z 0 1 2 3 4 5 6 7 8 9 / Top 100 tabs
Categorías
Usuarios
usuario:
Darse de alta
password:
Artistas más visitados
Publicidad
TOP acordes y tablaturas de The beatles


Estás en: Inicio > Letra T > Acordes y tablaturas de The beatles > One after 909
One after 909
de The beatles
Puntúa este acorde/tab:      
(0.2/5)
Reportar este acorde/tab
  Añadir a tus favoritos
  Imprimir
Obs.: Esta versão é da guitarra solo feita por George Harrison


( 1      2      3      4 )

e|---------------------------|---------------------------|  
B|---------------------------|-------7--7---7--7---------|
G|---------------------------|-------7--7-B-8--8---------|
D|---------------------------|---------------------------|
A|---------------------------|---------------------------|
E|---------------------------|---------------------------|


e|------ ------ ------ ------|------ ------ ------ ------|
B|-------0-------------------|0--------------------------|
G|-----------------2---------|---------------------------|
D|---------------------------|---------------------------|
A|---------------------------|---------------------------|
E|---------------------------|---------------------------|


e|------ ------ ------ ------|------ ------ ------ ------|
B|-----------------0---------|---------------------------|
G|-------2-------------------|2--------------------------|
D|---------------------------|---------------------------|
A|---------------------------|---------------------------|
E|---------------------------|---------------------------|


My
e|------ 2----- ------ ------|------ ------ ------ ------|
B|-------0---------0---------|----------7------7--------|
G|-----------------2---------|----------7--B---8--------|
D|---------------------------|---------------------------|
A|---------------------------|---------------------------|
E|---------------------------|---------------------------|


baby says she's trav'ling on the one after 9     0  9
e|------ 2----- ------ ------|------ ------ ------ ------|
B|-------0---------0---------|-------0---------0---------|
G|-----------------2---------|-------2---------2---------|
D|---------------------------|-------1---------1---------|
A|---------------------------|---------------------------|
E|---------------------------|---------------------------|


I   said
e|------ ------ ------ ------|------ ------ ------ ------|
B|-------7---------7---------|----------0----------------|
G|-------7-B-8-----8---------|----------2----------------|
D|---------------------------|----------1----------------|
A|---------------------------|2--------------------------|
E|---------------------------|---------------------------|

move over     honey     I'm travelling on    that   line
e|------ ------ ------ ------|------ ------ ------ ------|
B|----------0------0---------|0---------0------0---------|
G|----------2------2---------|2---------2------2---------|
D|----------1------1---------|1---------1------1---------|
A|----------2------2---------|2---------2------2---------|
E|---------------------------|---------------------------|

I   said
e|------ ------ ------ ------|------ ------ ------ ------|
B|-------0---------0---------|0--0------0------0---------|
G|-------2---------2---------|2--2------2------2---------|
D|-------1---------1---------|1--1------1------1---------|
A|---------------------------|---------------------------|
E|---------------------------|---------------------------|

move over once,             move over twice
e|------ ------ ---2-- ------|2----- ------ ---0-- ------|
B|0----------------0---------|0----------------0---------|
G|2----------------2---------|1----------------1---------|
D|1----------------1---------|1----------------2---0--2--|
A|2--------------------------|---------------------------|
E|---------------------------|---------------------------|

Come on    baby   don't be cold as ice.
e|------ ------ ------ ------|------ ------ ------ ------|
B|---------------------------|---------------------------|
G|-------1--1------1------1--|2-------------2------2-----|
D|-------2--2------2------2--|2-------------2------2-----|
A|-------2--2------2------2--|2-------------2------2-----|
E|0--------------------------|---------------------------|

I said I'm trav'ling on the one after  9      0  9
e|------ 2----- ------ ------|------ ------ ------ ------|
B|-------0---------0---------|5--------------------------|
G|-------2---------2---------|3--------------------------|
D|-----------------1---------|4--------------------------|
A|---------------------------|4--------------------------|
E|---------------------------|---------------------------|

I
e|------ 10-B-12--12-R-10----|7----- ---7-- ------ ------|
B|---------------------------|--10-B-11--------10B12-R-10|
G|---------------------------|---------------------------|
D|---------------------------|---------------------------|
A|---------------------------|---------------------------|
E|---------------------------|---------------------------|

begged her not to go and I begged her on my bended knee,
e|------ ------ ------ ------|------ ------ ------ ------|
B|--------------7------------|-------7---------7---------|
G|--------------8------------|-------8---------8---------|
D|--------------7------------|-------7---------7---------|
A|--------------(b9)-----------|-------(b9)--------(b9)--------|
E|--------------7------------|-------7---------7---------|

Yes I did                             You're
e|------ ------ ------ 7-----|------ ------ ------ 7-----|
B|---------10--B--11---------|---------10--B--11---------|
G|---------------------------|---------------------------|
D|---------------------------|---------------------------|
A|---------------------------|---------------------------|
E|---------------------------|---------------------------|

only fooling 'round,    only      fooling 'round with me.
e|------ ------ ------ ------|------ ------ ---7-- ------|
B|---------------------------|-------10--B--11-----------|
G|-------8----------------8--|---------------------------|
D|-------7----------------7--|---------------------------|
A|-------(b9)---------------(b9)-|---------------------------|
E|-------7----------------7--|---------------------------|

I   said
e|------ ------ ------ ------|7----- ------ ------ ------|
B|-----------------10--B--11-|----------10---------7-----|
G|-------8-------------------|---------------------------|
D|-------7-------------------|---------------------------|
A|-------(b9)------------------|---------------------------|
E|-------7-------------------|---------------------------|

move over once,             move over twice
e|------ ------ ------ ------|------ ------ ------ ------|
B|---------------------------|---------------------------|
G|---------------------------|---------------------------|
D|---------------------------|---------------------------|
A|(b9)------------(b9)-(b9)--------|(b9)-------------------------|
E|7-------------7--7---------|7----------------14-------|

Come on    baby  don't be  cold as ice.
e|------ ------ ------ ------|------ ------ ------ ------|
B|-------0-------------------|----------0----------------|
G|-------1-------------------|----------1----------------|
D|-------0-------------------|----------0----------------|
A|-------2-------------------|----------2----------------|
E|0--------------------------|---------------------------|

said I'm trav'ling on the one after  9      0  9

e|------ ---2-- ------ ------|------ ------ ------ ------|
B|0---------0----------------|---------------------------|
G|2---------2----------------|3---------3----------------|
D|1---------1----------------|2---------2----------------|
A|2---------2----------------|4---------4----------------|
E|---------------------------|2---------2----------------|

e|---7-- ------ ---7-- ------|------ ------ ------ ------|
B|---------10-B-11-----10--7|6--------------------------|
G|---------------------------|---(b9)--7------7------------|
D|---------------------------|----------(b9)---------(b9)----|
A|---------------------------|---------------------------|
E|---------------------------|---------------------------|

I   got my bag,
e|------ ------ ------ ------|------ ------ ------ ------|
B|---------------------------|---------------------------|
G|------------------------(b9)-|---(b9)---------(b9)-----(b9)----|
D|------------------------(b9)-|---(b9)---------(b9)-----(b9)----|
A|7------------------9/11----|----------11---------------|
E|---------------------------|---------------------------|

run    to     the station
e|------ ------ ------ ------|---7-- ------ ---7-- ------|
B|---------------------------|---7-------------7---------|
G|---------------------------|---------------------------|
D|---------------------------|----------(b9)------------(b9)-|
A|---------------------------|---------------------------|
E|7--------------------7-----|---------------------------|

Railman       says                           you've got the
e|------ ------ ------ ------|------ ------ ------ ------|
B|---------------------------|---(b9)----------------------|
G|---------------------------|--10----------x------------|
D|---------------------------|---(b9)---------x------------|
A|---------------------------|--11----------x------------|
E|---------------------------|---(b9)----------------------|

wrong  location
e|------ ------ ------ ------|------ ------ ------ ------|
B|---------------------------|---------------------------|
G|---------------------11----|11--------11---------------|
D|---------------------11----|11--------11---------------|
A|-----------------13--------|-------13--------13-----13-|
E|---------------------------|---------------------------|

I   got my bag,
e|------ ------ ------ ------|------ ------ ------ ------|
B|---------------------------|---------------------------|
G|(b9)-----(b9)------------------|11P(b9)-----(b9)---------(b9)----|
D|(b9)-----(b9)------------------|11P(b9)-----(b9)---------(b9)----|
A|---------------------------|-------11--------11--------|
E|---------------------------|---------------------------|

run    right  home
e|------ ------ ------ ---7--|------ ---7-- ------ ------|
B|---------------------------|--10-B-11------------7-----|
G|---------------------------|---------------------------|
D|---------------------------|------------------------(b9)-|
A|---------------------------|---------------------------|
E|---------------------------|---------------------------|

Then I    find                               I've got the

e|------ ------ ------ ------|---(b9)- ------ ------ ------|
B|-----------------------12-B|13-----12------------------|
G|---------------------------|----------10---------------|
D|---------------------------|---------------------------|
A|---------------------------|---------------------------|
E|---------------------------|---------------------------|

number wrong                       Well
e|------ ------ ------ ------|------ ------ ------ ------|
B|---------------------------|---------------------------|
G|---------11----------11----|-------11-----11-----------|
D|---------11----------11----|-------11-----11-----------|
A|---------------------------|---13----------------13----|
E|---------------------------|---------------------------|

I said she's trav'ling on the one after 9      0  9
e|------ ------ ------ ------|------ ------ ------ ------|
B|0--------------------------|---------------------------|
G|2--------------------------|---------------------------|
D|1--------------------------|---------------------------|
A|2--------------------------|---------------------------|
E|---------------------------|---------------------------|

I said
e|10B11- 10P(b9)- 12-10- B--11-|------ ------ ------ ------|
B|-----------(b9)--------------|12-----10-12---------------|
G|---------------------------|---------------------8-----|
D|---------------------------|---------------------(b9)----|
A|---------------------------|---------------------(b9)----|
E|---------------------------|---------------------7-----|

move over honey         I'm travelling on    that   line
e|------ ------ ------ ------|------ ------ ------ ------|
B|---------------------------|---------------------------|
G|---8-------8------------8--|----------8----------------|
D|---(b9)------(b9)-----------(b9)-|----------(b9)---------------|
A|---(b9)------(b9)-----------(b9)-|----------(b9)---------------|
E|---7-------7------------7--|----------7----------------|

I said
e|------ ------ ------ ------|------ 7----- ------ ------|
B|--10-B-7------10-B-7---10-B|11-------------------------|
G|----------7----------7-----|--------------9B10R(b9)7-----|
D|---------------------------|------------------------(b9)-|
A|---------------------------|---------------------------|
E|---------------------------|---------------------------|

move over once,             move over twice
e|------ ------ ------ ------|------ ------ ------ ------|
B|---------------------------|---------------------------|
G|---------------------------|---------------------------|
D|-----------------(b9)--------|---------------------------|
A|-----------------(b9)--------|-----------------(b9)--------|
E|---------------------------|---------------------------|

Come on    baby  don't be  cold as ice.
e|------ ------ ------ ------|------ ------ ------ ------|
B|---------------------------|---------------------------|
G|------------------------(b9)-|---(b9)---------(b9)-----------|
D|------------------------(b9)-|---(b9)---------(b9)--------11-|
A|7------------------9/11----|----------11---------------|
E|---------------------------|---------------------------|

said she's trav'ling on the one after 9      0  9
e|------ ------ ------ ------|------ ------ ------ ------|
B|---------------------------|---(b9)---------7------------|
G|-----------------8---------|---(b9)---------(b9)-----------|
D|-----------------7---------|---8----------8------------|
A|-----------------(b9)--------|---(b9)---------(b9)-----------|
E|-----------------7---------|---------------------------|


Solo
e|------ 7----- ------ ------|7----- ------ ---7-- ---7--|
B|-------7---------7---------|7--------------------------|
G|-----------------8---------|---------------------------|
D|---------------------------|---------------------------|
A|---------------------------|---------------------------|
E|---------------------------|---------------------------|

e|10-B-12---7-- ------ ------|------ ------ ------ ------|
B|----------7------10--7-----|---------------------------|
G|---------------------------|(b9)B-11-------------------11R
D|---------------------------|---------------------------|
A|---------------------------|---------------------------|
E|---------------------------|---------------------------|

e|------ ------ ------ ------|------ ------ ------ ------|
B|---------------------------|---------------------------|
G|(b9)-----7-------------------|---------------------7--(b9)9B
D|-----------------(b9)-----x--|-----------------(b9)--------|
A|---------------------------|---------------------------|
E|---------------------------|---------------------------|

e|---(b9)- ------ ------ ---7--|------ ------ ------ ------|
B|----------(b9)----10-B-12----|10--7----------------------|
G|11-------------------------|------10(b9)7---------------|
D|---------------------------|--------------(b9)-7---------|
A|---------------------------|---------------------(b9)-7--|
E|---------------------------|---------------------------|

e|------ ------ ------ ------|------ ------ ------ ------|
B|---------------------------|---------------------------|
G|---------------------------|---------------------------|
D|------------------------7--|---7----------7------------|
A|6------------------7(b9)----|----------(b9)---------(b9)----|
E|-------7------5------------|---------------------------|


e|------ ------ ------ ------|------ ------ ------ ------|
B|---(b9)P-7------(b9)-----------|---(b9)B-10------------------|
G|---(b9)P-7------9B8----------|---(b9)B-11-----7-B-8--------|
D|----------(b9)---------(b9)----|---------------------(b9)----|
A|---------------------------|---------------------------|
E|---------------------------|---------------------------|

e|------ ------ 10-12-B-14-14|14-14- 14-14-R-12-10 ------|
B|----------12---------------|---------------------12----|
G|---------------------------|---------------------------|
D|---------------------------|---------------------------|
A|---------------------------|---------------------------|
E|---------------------------|---------------------------|


e|10---- 7-7- ------ ------|------ ------ ------ ------|
B|-----------7---------------|---------------------------|
G|-----------------(b9)--7-----|---7---9B11---11-----(b9)P-7-|
D|---------------------------|(b9)-------------------------|
A|---------------------------|---------------------------|
E|---------------------------|---------------------------|

e|------ ------ ------ ------|------ ------ ------ ------|
B|---------------------------|---------------------------|
G|---------------------------|---------------------------|
D|(b9)-(b9)--(b9)-----(b9)--------(b9)-|-------7------7--(b9)--------|
A|---------------------------|------------------------(b9)/|
E|---------------------------|---------------------------|

Pick up my bag,
e|------ ------ ------ ------|------ ------ ------ ------|
B|---------------------------|---------------------------|
G|---(b9)-------------------(b9)-|---(b9)---------(b9)-----(b9)---|
D|---(b9)-------------------(b9)-|---(b9)---------(b9)-----(b9)---|
A|11-----------------9/11----|----------11---------------|
E|---------------------------|---------------------------|

run    to     the station
e|------ ------ ------ ------|------ ------ ------ ------|
B|-------7---------7---------|10--------10-----7---------|
G|-------8---------8---------|---------------------7B8---|
D|-------7---------7---------|---------------------------|
A|---------------------------|---------------------------|
E|---------------------------|---------------------------|

Railman says                                you've got the
e|------ ------ ------ ------|(b9)---- ------ ------ (b9)----|
B|-----------------12--B--14-|(b9)--------12--B--14--(b9)----|
G|---------------------------|---------------------------|
D|---------------------------|---------------------------|
A|---------------------------|---------------------------|
E|---------------------------|---------------------------|

wrong  location
e|------ ------ ------ ------|------ ------ ------ ------|
B|---(b9)------------(b9)--------|---(b9)----------------------|
G|---(b9)-----(b9)-----(b9)-----(b9)-|---(b9)-----(b9)---------------|
D|----------8-------------8--|----------8----------------|
A|---------------------------|---------------------------|
E|---------------------------|---------------------------|

Pick up my  bag,
e|------ ------ ------ ------|------ ------ ------ ------|
B|---------------------------|---------------------------|
G|7------7----------------7--|-------7-------------7-----|
D|6------6----------------6--|-------6-------------6-----|
A|7------7----------------7--|-------7-------------7-----|
E|---------------------------|---------------------------|

run    right  home
e|------ ------ ------ ------|------ ------ ------ ------|
B|-------7---------7---------|----------7------7---------|
G|-------8---------8---------|----------8------(b9)--------|
D|-------7---------7---------|----------7------7---------|
A|-------(b9)--------(b9)--------|----------(b9)-----(b9)--------|
E|---------------------------|---------------------------|

Then I    find                               I've got the
e|------ ------ ------ ------|------ ------ ------ ---2--|
B|-------2---------2---------|2--2---2--2------2------2--|
G|-------4---------4---------|4--4---4--4------4------3--|
D|-------3---------3---------|3--3---3--3------3------2--|
A|-------4---------4---------|4--4---4--4------4------4--|
E|---------------------------|---------------------------|


number wrong              Well
e|---2-- ---2-- ---2-- ------|------ ------ ---2-- ------|
B|---2------2------2---------|2------2------2--2---------|
G|---3------3------3---------|3------3------3--3---------|
D|---2------2------2---------|2------2------2--2---------|
A|---4------4------4---------|4------4------4--4---------|
E|---2------2------2---------|2------2------2--2---------|

B7
Said she's trav'ling on the one after 9      0  9
e|------ ------ ------ ------|------ ------ ------ ------|
B|-------0---------0------0--|-------0---------0---------|
G|-------2---------2------2--|-------2---------2---------|
D|-------1---------1------1--|-------1---------1---------|
A|-------2---------2------2--|-------2---------2---------|
E|---------------------------|---------------------------|

Said
e|------ ------ ------ ------|------ ------ ------ ------|
B|-------7--7------7---7-----|0------0------0--0---------|
G|-------7--7-B-8--8---8-----|2------2------2--2---------|
D|---------------------------|1------1------1--1---------|
A|---------------------------|-------2------2--2---------|
E|---------------------------|---------------------------|


Move over honey         I'm travelling on    that   line
e|------ ------ ------ ------|------ ------ ------ ------|
B|-------0---------0------0--|-------0--0------0---------|
G|-------2---------2------2--|-------2--2------2---------|
D|-------1---------1------1--|-------1--1------1---------|
A|-------2---------2------2--|-------2--2------2---------|
E|---------------------------|---------------------------|

I   said
e|------ ------ ------ ------|------ ------ ------ ------|
B|-------7--7------7------0--|-------0--0------0------0--|
G|-------7--7-B-8--8------2--|-------2--2------2------2--|
D|------------------------1--|-------1--1------1------1--|
A|------------------------2--|-------2--2------2------0--|
E|---------------------------|---------------------------|

Move over once,             Move over twice
e|------ ------ ------ ------|------ ------ ------ ------|
B|0--------------------------|---------------------------|
G|2-----------------------2--|------------------------2--|
D|1-----------------------1--|------------------------1--|
A|2-----------------------2--|------------------------2--|
E|---------------------------|---------------------------|

Come on,    baby   don't be cold as ice
e|------ 7----- ------ ------|------ ------ ------ ------|
B|-------0---------0------7--|------------------------0--|
G|-------7----------------7--|------------------------2--|
D|------------------------6--|------------------------1--|
A|-------7----------------7--|------------------------2--|
E|---------------------------|---------------------------|

Said she's trav'ling on the one after 9      0,
e|------ 2----- ------ ------|------ ------ ------ ------|
B|-------0--0----------------|----------2----------------|
G|-------2-------------------|----------3----------------|
D|-------1-------------------|----------2----------------|
A|-------2-------------------|---------------------------|
E|---------------------------|----------2----------------|

Said she's trav'ling on the one after 9      0,
e|------ 2----- ------ ------|------ ------ ------ ------|
B|-------0---------0---------|----------2----------------|
G|-------2-------------------|----------3----------------|
D|-------1-------------------|----------2----------------|
A|-------2-------------------|---------------------------|
E|---------------------------|----------2----------------|

Said she's trav'ling on the one after 9      0  9
e|------ 2----- ------ ------|------ ------ ------ ------|
B|-------0---------0---------|---------------------------|
G|-------2-------------------|---------------------------|
D|-------1-------------------|---------------------------|
A|-------2-------------------|---------------------------|
E|---------------------------|---------------------------|

e|------ ------ ------ ------|------ ------ ------ ------|
B|---(b9)B-10--10R(b9)P-7--------|---------------------------|
G|---------------------------|---------------------------|
D|---------------------9P7---|---7---(b9)-(b9)---------(b9)----|
A|-------------------------(b9)|(b9)-------------------------|
E|---------------------------|---------------------------|

B  Bend
R  Release
/  slide up
  slide down
H  hammer-on
P  pull-off
~  vibrato
+  harmonic
x  Mute note
. - play note like a dot in standard notation
^ - ties two notes together
(. Pause		   
AcordesyTabs.com © 2008 Acordes y Tablaturas para guitarra. Tabs and Chords for guitar. Aviso Legal - Contacto
El uso de este sitio está sujeto a la aceptación de los términos y condiciones (21 usuarios online)