tablaturas, partituras y acordes para guitarra
Busca por banda/artista:
 
y/o título de la canción:
A B C D E F G H I J K L M N O P Q R S T U V W X Y Z 0 1 2 3 4 5 6 7 8 9 / Top 100 tabs
Categorías
Usuarios
usuario:
Darse de alta
password:
Artistas más visitados
Publicidad
TOP acordes y tablaturas de System of a down


La isla bonita
de System of a down
Puntúa este acorde/tab:      
(0.4/5)
Reportar este acorde/tab
  Añadir a tus favoritos
  Imprimir
afinação: c g c f a d

|-----------------------|----------------------|-----------------------|
|-----------------------|----------------------|-----------------------|
|-----------------------|------------(b9)--------|-----------------------|
|------------7-------7--|-------(b9)--------(b9)---|------------5-------5--|
|-------7---------7-----|--7-------------------|-------5---------5-----|
|--7--------------7-----|----------------------|--5--------------5-----|



|----------------------|----------------------|----------------------|
|----------------------|----------------------|----------------------|
|------------7---------|------------5---------|----------------------|
|-------7---------7----|-------5---------5----|------------2---------|
|--5-------------------|--3-------------------|-------2----2---------|
|----------------------|----------------------|--2---------2----2----|



|-----------------------|----------------------|-----------------------|
|-----------------------|----------------------|-----------------------|
|-----------------------|----------------------|-----------------------|
|------------5-------5--|------------3---------|------------7-------7--|
|-------5---------5-----|-------3---------3----|-------7---------7-----|
|--5--------------5-----|--3-------------------|--7--------------7-----|



|----------------------|-----------------------|----------------------|
|----------------------|-----------------------|----------------------|
|------------(b9)--------|-----------------------|------------7---------|
|-------(b9)--------(b9)---|------------5-------5--|-------7---------7----|
|--7-------------------|-------5---------5-----|--5-------------------|
|----------------------|--5--------------5-----|----------------------|



|----------------------|----------------------|-----------------------|
|----------------------|----------------------|-----------------------|
|------------5---------|----------------------|-----------------------|
|-------5---------5----|------------2---------|------------5-------5--|
|--3-------------------|-------2----2---------|-------5---------5-----|
|----------------------|--2---------2----2----|--5--------------5-----|



|----------------------|-----------------------|----------------------|
|----------------------|-----------------------|----------------------|
|----------------------|-----------------------|------------(b9)--------|
|------------3---------|------------7-------7--|-------(b9)--------(b9)---|
|-------3---------3----|-------7---------7-----|--7-------------------|
|--3-------------------|--7--------------7-----|----------------------|



|-----------------------|----------------------|----------------------|
|-----------------------|----------------------|----------------------|
|-----------------------|------------7---------|------------5---------|
|------------5-------5--|-------7---------7----|-------5---------5----|
|-------5---------5-----|--5-------------------|--3-------------------|
|--5--------------5-----|----------------------|----------------------|



|----------------------|-----------------------|----------------------|
|----------------------|-----------------------|----------------------|
|----------------------|-----------------------|----------------------|
|------------2---------|------------5-------5--|------------3---------|
|-------2----2---------|-------5---------5-----|-------3---------3----|
|--2---------2----2----|--5--------------5-----|--3-------------------|



|-----------------------|----------------------|-----------------------|
|-----------------------|----------------------|-----------------------|
|-----------------------|------------(b9)--------|-----------------------|
|------------7-------7--|-------(b9)--------(b9)---|------------5-------5--|
|-------7---------7-----|--7-------------------|-------5---------5-----|
|--7--------------7-----|----------------------|--5--------------5-----|



|----------------------|----------------------|----------------------|
|----------------------|----------------------|----------------------|
|------------7---------|------------5---------|----------------------|
|-------7---------7----|-------5---------5----|------------2---------|
|--5-------------------|--3-------------------|-------2----2---------|
|----------------------|----------------------|--2---------2----2----|



|-----------------------|----------------------|-----------------------|
|-----------------------|----------------------|-----------------------|
|-----------------------|----------------------|-----------------------|
|------------5-------5--|------------3---------|------------7-------7--|
|-------5---------5-----|-------3---------3----|-------7---------7-----|
|--5--------------5-----|--3-------------------|--7--------------7-----|



|----------------------|-----------------------|----------------------|
|----------------------|-----------------------|----------------------|
|------------(b9)--------|-----------------------|------------7---------|
|-------(b9)--------(b9)---|------------5-------5--|-------7---------7----|
|--7-------------------|-------5---------5-----|--5-------------------|
|----------------------|--5--------------5-----|----------------------|



|----------------------|----------------------|-----------------------|
|----------------------|----------------------|-----------------------|
|------------5---------|----------------------|-----------------------|
|-------5---------5----|------------2---------|------------5-------5--|
|--3-------------------|-------2----2---------|-------5---------5-----|
|----------------------|--2---------2----2----|--5--------------5-----|



|----------------------|-----------------------|----------------------|
|----------------------|-----------------------|----------------------|
|----------------------|-----------------------|------------(b9)--------|
|------------3---------|------------7-------7--|-------(b9)--------(b9)---|
|-------3---------3----|-------7---------7-----|--7-------------------|
|--3-------------------|--7--------------7-----|----------------------|



|-----------------------|----------------------|----------------------|
|-----------------------|----------------------|----------------------|
|-----------------------|------------7---------|------------5---------|
|------------5-------5--|-------7---------7----|-------5---------5----|
|-------5---------5-----|--5-------------------|--3-------------------|
|--5--------------5-----|----------------------|----------------------|



|----------------------|-----------------------|----------------------|
|----------------------|-----------------------|----------------------|
|----------------------|-----------------------|----------------------|
|------------2---------|------------5-------5--|------------3---------|
|-------2----2---------|-------5---------5-----|-------3---------3----|
|--2---------2----2----|--5--------------5-----|--3-------------------|



|-----------------------|----------------------|-----------------------|
|-----------------------|----------------------|-----------------------|
|-----------------------|------------(b9)--------|-----------------------|
|------------7-------7--|-------(b9)--------(b9)---|------------5-------5--|
|-------7---------7-----|--7-------------------|-------5---------5-----|
|--7--------------7-----|----------------------|--5--------------5-----|



|----------------------|----------------------|----------------------|
|----------------------|----------------------|----------------------|
|------------7---------|------------5---------|----------------------|
|-------7---------7----|-------5---------5----|------------2---------|
|--5-------------------|--3-------------------|-------2----2---------|
|----------------------|----------------------|--2---------2----2----|		   
AcordesyTabs.com © 2008 Acordes y Tablaturas para guitarra. Tabs and Chords for guitar. Aviso Legal - Contacto
El uso de este sitio está sujeto a la aceptación de los términos y condiciones (25 usuarios online)