tablaturas, partituras y acordes para guitarra
Busca por banda/artista:
 
y/o título de la canción:
A B C D E F G H I J K L M N O P Q R S T U V W X Y Z 0 1 2 3 4 5 6 7 8 9 / Top 100 tabs
Categorías
Usuarios
usuario:
Darse de alta
password:
Artistas más visitados
Publicidad
TOP acordes y tablaturas de System of a down


Question !
de System of a down
Puntúa este acorde/tab:      
(0.4/5)
Reportar este acorde/tab
  Añadir a tus favoritos
  Imprimir
Essa musica é muito rapida

Intro>Viloão

G|--------------------|
D|--------------------|
A|--------------------|
E|--4/11-(b9)(b9)7h(b9)6h7--|x4

G|----------------------|
D|----------------------|
A|----------------------|
E|--4-11-(b9)(b9)(b9)7-(b9)6-7--|x4

G|--------------------|
D|--------------------|
A|--------------------|
E|--4-----------------|

G|--------------------|
D|------2-4-4-2h4-0h2-|
A|----4---------------|
E|--4-----------------|x3

G|--------------------|
D|--------------------|
A|---2(b9)-----2(b9)----|
E|--------------------|

G|--------------------|
D|------2-4-4-2h4-0h2-|
A|----4---------------|
E|--4-----------------|x3

G|--------------------|
D|--------------------|
A|---2(b9)-----2(b9)----|
E|--------------------|

G|--------------------|
D|--------------------|
A|--4--2--4--2--------|
E|--------------------|

G|---------------------|
D|---------------------|
A|---------------------|
E|---4x18--(b9)(b9)(b9)(b9)(b9)(b9)|x3

G|--------------------|
D|--------------------|
A|--------------(b9)----|
E|--------------------|

G|--------------------|
D|--------------------|
A|--------------------|
E|--4/11-(b9)(b9)7h(b9)6h7--|x2

G|--------------------|
D|------2-4-4-2h4-0h2-|
A|----4---------------|
E|--4-----------------|x3

G|--------------------|
D|--------------------|
A|---2(b9)-----2(b9)----|
E|--------------------|

G|--------------------|
D|------2-4-4-2h4-0h2-|
A|----4---------------|
E|--4-----------------|x3

G|--------------------|
D|--------------------|
A|---2(b9)-----2(b9)----|
E|--------------------|

G|--------------------|
D|--------------------|
A|--4--2--4--2--------|
E|--------------------|

G|---------------------|
D|---------------------|
A|---------------------|
E|---4x18--(b9)(b9)(b9)(b9)(b9)(b9)|x3

G|--------------------|
D|--------------------|
A|--------------(b9)----|
E|--------------------|

G|--------------------|
D|--------------------|
A|--------------------|
E|--4/11-(b9)(b9)7h(b9)6h7--|x4

G|----------------------|
D|----------------------|
A|----------------------|
E|--4-11-(b9)(b9)(b9)7-(b9)6-7--|x4

G|----------------------------------------------|
D|----------------------------------------------|
A|----------------------------------------------|
E|--4-4-4-4-11-11-(b9)(b9)(b9)(b9)(b9)(b9)7-7-(b9)(b9)6-6-7-7---|x4

G|--------------------|
D|--------------------|
A|--------------------|
E|--4/11-(b9)(b9)7h(b9)6h7--|x4

G|--------------------|
D|--------------------|
A|--------------------|
E|--4-4-4-4-4-0-------|x12

G|--------------------|
D|--------------------|
A|--------------------|
E|------------(9)x32--| 32=Trinta e dois(semicolcheia)

G|--------------------|
D|--------------------|
A|--------------------|
E|--4-4-4-4-4-0-------|x14

G|--------------------|
D|--------------------|
A|--------------------|
E|------------(9)x48--|  48=Quarenta e oito(semicolcheia)

G|--------------------|
D|--------------------|
A|--------------------|
E|--4/11-(b9)(b9)7h(b9)6h7--|x4

G|--------------------|
D|--------------------|
A|--------------------|
E|--4-----------------|

G|--------------------|
D|--------------------|
A|--------------------|
E|--4/11-(b9)(b9)7h(b9)6h7--|x2		   
AcordesyTabs.com © 2008 Acordes y Tablaturas para guitarra. Tabs and Chords for guitar. Aviso Legal - Contacto
El uso de este sitio está sujeto a la aceptación de los términos y condiciones (32 usuarios online)