tablaturas, partituras y acordes para guitarra
Busca por banda/artista:
 
y/o título de la canción:
A B C D E F G H I J K L M N O P Q R S T U V W X Y Z 0 1 2 3 4 5 6 7 8 9 / Top 100 tabs
Categorías
Usuarios
usuario:
Darse de alta
password:
Artistas más visitados
Publicidad
TOP acordes y tablaturas de Foo fighters


The sign
de Foo fighters
Puntúa este acorde/tab:      
(0.1/5)
Reportar este acorde/tab
  Añadir a tus favoritos
  Imprimir
Tuning: eBGDAE

Intro
   Gtr. Lead
e||--0--0--0--0--0--0--0--0--0--0--0--0--0--0--0--0--0--0--0--||
B||--14-14-14-15-15-15-15-14-14-14-14-14-12-12-12-12-12-12-12-||
G||-----------------------------------------------------------||
D||-----------------------------------------------------------||
A||-----------------------------------------------------------||
E||-----------------------------------------------------------||

   Gtr. Rhythm
e||-------|-----------------------------------------||
B||-------|-----------------------------------------||
G||--7----|--7-7-7-7-7-7-7-7-7-7-7-7-7-7-7-7-7-7-7--||
D||--7----|--7-7-7-7-7-7-7-7-7-7-7-7-7-7-7-7-7-7-7--||
A||--5----|--5-5-5-5-5-5-5-5-5-5-5-5-5-5-5-5-5-5-5--||
E||-------|-----------------------------------------||

     ^ v ^ v ^ v ^ v ^ v ^ v ^ v ^ v ^ v ^ v ^ v ^
e||-------------------------------------------------||
B||-------------------------------------------------||
G||--7-x-7-x-7-x-7-x-7-x-7-x-7-x-7-x-7-x-7-x-7-x-7--||
D||--7-x-7-x-7-x-7-x-7-x-7-x-7-x-7-x-7-x-7-x-7-x-7--||
A||--5-x-5-x-5-x-5-x-5-x-5-x-5-x-5-x-5-x-5-x-5-x-5--||
E||-------------------------------------------------||


Verse
   Gtr. Lead
e||--0--0--0--0--0--0--0--0--0--0--0--0--0--0--0--0--0--0--0--||
B||--14-14-14-15-15-15-15-14-14-14-14-14-12-12-12-12-12-12-12-||
G||-----------------------------------------------------------||
D||-----------------------------------------------------------||
A||-----------------------------------------------------------||
E||-----------------------------------------------------------||

   Gtr. Rhythm
e||-----------------------------------------------------------||
B||-----------------------------------------------------------||
G||--7-7-7-7-7-7-7-7-7-7-7-7-7-7------------------------------||
D||--7-7-7-7-7-7-7-7-7-7-7-7-7-7--5-5-5-5-5-5-5-5-5-5-5-5-5---||
A||--5-5-5-5-5-5-5-5-5-5-5-5-5-5--5-5-5-5-5-5-5-5-5-5-5-5-5---||
E||-------------------------------3-3-3-3-3-3-3-3-3-3-3-3-3---||


Pre-Chorus
   Gtr. Rhythm
e||-----------------------------------------------------------------------------||
B||-----------------------------------------------------------------------------||
G||--11-11-11-11-11-11-11-11-11-(b9)(b9)(b9)(b9)(b9)(b9)(b9)(b9)7-7-7-7-7-7-7-7-(b9)(b9)(b9)(b9)(b9)(b9)(b9)(b9)||
D||--11-11-11-11-11-11-11-11-11-(b9)(b9)(b9)(b9)(b9)(b9)(b9)(b9)7-7-7-7-7-7-7-7-(b9)(b9)(b9)(b9)(b9)(b9)(b9)(b9)||
A||--(b9)-(b9)-(b9)-(b9)-(b9)-(b9)-(b9)-(b9)-(b9)-7-7-7-7-7-7-7-7-5-5-5-5-5-5-5-5-7-7-7-7-7-7-7-7-||
E||-----------------------------------------------------------------------------||

   Gtr. Lead
e||--------------------------------------------------------------------------------||
B||--------------------------------------------------------------------------------||
G||--11-11-11-11-11-11-11-11-11-(b9)(b9)(b9)(b9)(b9)(b9)(b9)(b9)7-7-7-7-7-7-7-7-13-13-13-13-13-13--||
D||--x--x--x--x--x--x--x--x--x--x-x-x-x-x-x-x-x-x-x-x-x-x-x-x-x-x--x--x--x--x--x---||
A||--(b9)-(b9)-(b9)-(b9)-(b9)-(b9)-(b9)-(b9)-(b9)-7-7-7-7-7-7-7-7-5-5-5-5-5-5-5-5-11-11-11-11-11-11--||
E||--------------------------------------------------------------------------------||

   Gtr. Rhythm
e||-----------------------------------------------------------------------------||
B||-----------------------------------------------------------------------------||
G||--11-11-11-11-11-11-11-11-11-(b9)(b9)(b9)(b9)(b9)(b9)(b9)(b9)7-7-7-7-7-7-7-7-7-7-7-7-7-7-7-7-||
D||--11-11-11-11-11-11-11-11-11-(b9)(b9)(b9)(b9)(b9)(b9)(b9)(b9)7-7-7-7-7-7-7-7-7-7-7-7-7-7-7-7-||
A||--(b9)-(b9)-(b9)-(b9)-(b9)-(b9)-(b9)-(b9)-(b9)-7-7-7-7-7-7-7-7-5-5-5-5-5-5-5-5-5-5-5-5-5-5-5-5-||
E||-----------------------------------------------------------------------------||

   Gtr. Lead
e||-----------------------------------------------------------------------------||
B||-----------------------------------------------------------------------------||
G||--11-11-11-11-11-11-11-11-11-(b9)(b9)(b9)(b9)(b9)(b9)(b9)(b9)7-7-7-7-7-7-7-7-7-7-7-7-7-7-7-7-||
D||--x--x--x--x--x--x--x--x--x--x-x-x-x-x-x-x-x-x-x-x-x-x-x-x-x-x-x-x-x-x-x-x-x-||
A||--(b9)-(b9)-(b9)-(b9)-(b9)-(b9)-(b9)-(b9)-(b9)-7-7-7-7-7-7-7-7-5-5-5-5-5-5-5-5-5-5-5-5-5-5-5-5-||
E||-----------------------------------------------------------------------------||


Chorus
   Gtr. Rhythm
e||-----------------------------------||
B||-----------------------------------||
G||--7-7-7-7-7-7-7-7-7-7-7-7-7-7-7-7--|| (2 times)
D||--7-7-7-7-7-7-7-7-7-7-7-7-7-7-7-7--||
A||--4/5-5-5-5-5-5-5-5-5-5-5-5-5-5-5--||
E||-----------------------------------||

e||---------------------------------------------------||
B||---------------------------------------------------||
G||---------------------------------------------------||
D||--5-5-5-5-5-5-5-5-2-2-2-2-2-2-2-2-5-5-5-5-5-5-5-5--||
A||--5-5-5-5-5-5-5-5-2-2-2-2-2-2-2-2-5-5-5-5-5-5-5-5--||
E||--3-3-3-3-3-3-3-3-0-0-0-0-0-0-0-0-3-3-3-3-3-3-3-3--||

   Gtr. Lead
e||--0--0--0--0--0--0--0--0--0--0--0--0--0--0--0--0--0--0--0--||
B||--14-14-14-15-15-15-15-14-14-14-14-14-12-12-12-12-12-12-12-||
G||-----------------------------------------------------------||
D||-----------------------------------------------------------||
A||-----------------------------------------------------------||
E||-----------------------------------------------------------||
   (I know it not exactly as the verse)


Interlude
   Gtr. Rhythm
e||-----------------------------------------------------------------------------||
B||-----------------------------------------------------------------------------||
G||--11-11-11-11-11-11-11-11-11-(b9)(b9)(b9)(b9)(b9)(b9)(b9)(b9)7-7-7-7-7-7-7-7-(b9)(b9)(b9)(b9)(b9)(b9)(b9)(b9)||
D||--x--x--x--x--x--x--x--x--x--x-x-x-x-x-x-x-x-x-x-x-x-x-x-x-x-x-x-x-x-x-x-x-x-||
A||--(b9)-(b9)-(b9)-(b9)-(b9)-(b9)-(b9)-(b9)-(b9)-7-7-7-7-7-7-7-7-5-5-5-5-5-5-5-5-7-7-7-7-7-7-7-7-||
E||-----------------------------------------------------------------------------||

   Gtr. Lead
e||--0--0--0--0--0--0--0--0--0--0--0--0--0--0--0--0-0-0-0-0-0-0-0-0-0-0-0-0--0-0-||
B||--12-12-12-12-12-12-12-12-10-10-10-10-12-10-10-8-8-8-8-8-8-8-8-(b9)(b9)(b9)(b9)10-(b9)(b9)||
G||------------------------------------------------------------------------------|| (3 times)
D||------------------------------------------------------------------------------||
A||------------------------------------------------------------------------------||
E||------------------------------------------------------------------------------||

e||--0--0--0--0--0--0--0--0--0--0--0--0--0--0--0--0-0-0-0-0-0-0-0-0-0-0-0-0-0-0--||
B||--12-12-12-12-12-12-12-12-10-10-10-10-12-10-10-8-8-8-8-8-8-8-8-8-8-8-8-8-8-8--||
G||------------------------------------------------------------------------------||
D||------------------------------------------------------------------------------||
A||------------------------------------------------------------------------------||
E||------------------------------------------------------------------------------||


Outro
   Both Guitars
     ^ v ^ v ^ v ^ v ^ v ^ v ^ v ^ v ^ v ^ v ^ v ^
e||-------------------------------------------------||
B||-------------------------------------------------||
G||--7-x-7-x-7-x-7-x-7-x-7-x-7-x-7-x-7-x-7-x-7-x-7--||
D||--7-x-7-x-7-x-7-x-7-x-7-x-7-x-7-x-7-x-7-x-7-x-7--||
A||--5-x-5-x-5-x-5-x-5-x-5-x-5-x-5-x-5-x-5-x-5-x-5--||
E||-------------------------------------------------||


verse

I got superstition
Ruling my decision
You are my religion
Haven't got a Prayer

So just give me the sign and I'll follow you
When every angel's guarding you
You are my religion
Haven't got a prayer

pre-chorus

I don't want to wait to save your life
I think I know a way to make things right

Chorus

Just give me the sign and I'll come for you
Give me the sign and I'll be your rescue, baby
I'll run your way when I hear you calling me

Give me the sign and I'll come for you
Give me the sign and I'll be your rescue, baby
I'll run your way when I hear you calling out for me

intro
Verse

Walking under ladders
Nothing really matters
There could be disaster
I don't really care

So just give me the sign and I'll follow you
When every angel's guarding you
There could be disaster
I don't really care

pre-chorus

I don't want to wait to save your life
I think I know a way to make things right

chorus

Just give me the sign and I'll come for you
Give me the sign and I'll be your rescue, baby
I'll run your way when I hear you calling me

Give me the sign and I'll come for you
Give me the sign and I'll be your rescue, baby
I'll run your way when I hear you calling out 

interlude

For me x2

I don't want to wait to save your life
I think I know a way to make things right

chorus

Just give me the sign
Give me the sign
Give me the sign
Just give me the sign

Just give me the sign and I'll come for you
Give me the sign and I'll be your rescue, baby
I'll run your way when I hear you calling me

Give me the sign and I'll come for you
Give me the sign and I'll be your rescue, baby
I'll run your way when I hear you calling out for me (give me the sign)

Give me the sign x3		   
AcordesyTabs.com © 2008 Acordes y Tablaturas para guitarra. Tabs and Chords for guitar. Aviso Legal - Contacto
El uso de este sitio está sujeto a la aceptación de los términos y condiciones (17 usuarios online)