tablaturas, partituras y acordes para guitarra
Busca por banda/artista:
 
y/o título de la canción:
A B C D E F G H I J K L M N O P Q R S T U V W X Y Z 0 1 2 3 4 5 6 7 8 9 / Top 100 tabs
Categorías
Usuarios
usuario:
Darse de alta
password:
Artistas más visitados
Publicidad
TOP acordes y tablaturas de The donnas


Estás en: Inicio > Letra T > Acordes y tablaturas de The donnas > Too bad about your girl
Too bad about your girl
de The donnas
Puntúa este acorde/tab:      
(0.3/5)
Reportar este acorde/tab
  Añadir a tus favoritos
  Imprimir
Intro/verse (bass arranged for guitar)
e|-----------------|-----------------|----------------|--------------------|
B|-----------------|-----------------|----------------|--------------------|
G|-----------------|-----------------|----------------|--------------------|
D|-----------------|-----------------|----------------|--------------------|
A|-2-2-2-2-2-2-2-2-|-2-2-2-2-2-2-2-2-|-0-0-0-0-0-2-2-2|-2-2-2-2-2-2-2-2----|
E|-----------------|-----------------|----------------|--------------------|
 
  Fill (1st verse& before every chorus)
e|-0--------|
B|----0-----|
G|----------|

 Chorus (listen to the song for the rhythm)
e|---------------------|-----------------------|---------------------------|
B|---------------------|----------------5--5---|---------------------------|
G|-7--7-7-7-(b9)4--4-4-4-|-7--7-7-7-(b9)4-4-4--4-4-|-7--7-7-7-(b9)4--4-4-4-------|
D|-7--7-7-7-(b9)4--4-4-4-|-7--7-7-7-(b9)4-4-2--2-4-|-7--7-7-7-(b9)4--4-4-4-------|
A|-5--5-5-5-7-2--2-2-2-|-5--5-5-5-7-2-2-2--2-2-|-5--5-5-5-7-2--2-2-2-------|
E|---------------------|-----------------------|---------------------------|
                   
e|-------------------------------------------------------------------------|
B|-------------------------------------------------------------------------|
G|-7--7-7-7-(b9)11--------------------------------------7--------------------|
D|-7--7-7-7-(b9)11-----4-4-4-4-4-4-4-4-4-4-4-4-4-4------7--(b9)----------------|
A|-5--5-5-5-7-(b9)-----4-4-4-4-4-4-4-4-4-4-4-4-4-4--7-7-5--(b9)----------------|
E|-------------------2-2-2-2-2-2-2-2-2-2-2-2-2-2--5-5----7-----------------|
                    PM(1st chorus only)_________| PM_|                      

Bridge
e|----------------------------------1---------0---1-1-------0-0------------|
B|----------------------------------1---------0---1---1-----0---0----------|
G|----------------------------------2---------1---2-----2---1-----1--------|
D|-(b9)-9-7--7-5--5-4--4-3--3---3-3-2-2---2-2-3-------3-2--------------|
A|-(b9)-9-7--7-5--5-4--4-3--3-----3-2-2-----2-3-------3-2--------------|
E|-7--7-5--5-3--3-2--2-1--1-----1-0-0-----0-1-------1-0--------------|

 Solo
e|------------------------------------------------------10-----------------|
B|-7------------------7-----------7----7----7------10b12---10b12-----------|
G|-9b11rb9b11-(b9)7-(b9)7-9b11---7-(b9)-9b11-9b11-9b11-7-------------------------|
D|-------------------------(b9)----------------------------------------------|
A|-------------------------------------------------------------------------|
E|-------------------------------------------------------------------------|

e|-------------------------------------------------------------------------|
B|-10b12rb10-7-------------------------------------------10-----10----10---|
G|--------------9b11rb(b9)7-(b9)7-------------7--7--(b9)---9b11---9b11--9b11-----|
D|----------------------------(b9)----------7--7--(b9)7-(b9)---------------------|
A|------------------------------------7-(b9)-(b9)-(b9)-(b9)------------------------|
E|--------------------------------/10--------------------------------------|

e|------------------------|
B|-------------10b12~~~~--|
G|-7-9b11rb(b9)7------------|
D|------------------------|
A|------------------------|
E|------------------------|

Key:
PM= Palm Mute
or/=Slide
b=Bend
rb=Release Bend
~=Vibrato		   
AcordesyTabs.com © 2008 Acordes y Tablaturas para guitarra. Tabs and Chords for guitar. Aviso Legal - Contacto
El uso de este sitio está sujeto a la aceptación de los términos y condiciones (24 usuarios online)