tablaturas, partituras y acordes para guitarra
Busca por banda/artista:
 
y/o título de la canción:
A B C D E F G H I J K L M N O P Q R S T U V W X Y Z 0 1 2 3 4 5 6 7 8 9 / Top 100 tabs
Categorías
Usuarios
usuario:
Darse de alta
password:
Artistas más visitados
Publicidad
TOP acordes y tablaturas de Foo fighters


Estás en: Inicio > Letra F > Acordes y tablaturas de Foo fighters > Guns beside my bed
Guns beside my bed
de Foo fighters
Puntúa este acorde/tab:      
(0.3/5)
Reportar este acorde/tab
  Añadir a tus favoritos
  Imprimir
Verse 
e|----------------------------------|  
B|--------------------5-------------| 
G|----------------------------------| (x2) 
D|-00000000----7-7----------7777777-|  
A|-00000000----7-7----------7777777-|  
D|-00000000----7-7----------7777777-|  
 
 
 Pre-Chorus 
e|------------------------------------------------| 
B|------------------------------------------------|  
G|------------------------------------------------| (x1) 
D|-5555---0---5555---0------7777--5555-0000000000-|  
A|-5555---0---5555---0------7777--5555-0000000000-|  
D|-5555---0---5555---0------7777--5555-0000000000-| 
 Then Back to Verse then Pre-Chorus then Chorus. 
 
 
 Chorus 
e|----------------------------------------|  
B|-------------------5------5-------------| 
G|-77777777-------------------------------| (x3) 
D|-xxxxxxxx-----77------77----------------|  
A|-55555555-----77------77----------------|  
D|--------------77------77----------------| 
 
e|----------------------------------------|  
B|----------------------------------------| 
G|-7777--999(b9)-11-11-11--11---------------| (x1) 
D|-xxxx--xxxx--x--x--x---x----------00000-|  
A|-5555--7777--(b9)-(b9)-(b9)--(b9)---------00000-|  
D|----------------------------------00000-|		   
AcordesyTabs.com © 2008 Acordes y Tablaturas para guitarra. Tabs and Chords for guitar. Aviso Legal - Contacto
El uso de este sitio está sujeto a la aceptación de los términos y condiciones (25 usuarios online)