tablaturas, partituras y acordes para guitarra
Busca por banda/artista:
 
y/o título de la canción:
A B C D E F G H I J K L M N O P Q R S T U V W X Y Z 0 1 2 3 4 5 6 7 8 9 / Top 100 tabs
Categorías
Usuarios
usuario:
Darse de alta
password:
Artistas más visitados
Publicidad
TOP acordes y tablaturas de Foo fighters


Estás en: Inicio > Letra F > Acordes y tablaturas de Foo fighters > It's all about the benjamins
It's all about the benjamins
de Foo fighters
Puntúa este acorde/tab:      
(0.3/5)
Reportar este acorde/tab
  Añadir a tus favoritos
  Imprimir
e|------------------------------------------------------| 
B|------------------------------------------------------| 
G|--------------------3-3-3----------------------3-3-3--| 
D|--5---5-5-5--3/5--3-3-3-3----5---5-5-5--3/5--3-3-3-3--| 
A|--5---5-5-5--3/5--3-1-1-1----5---5-5-5--3/5--3-1-1-1--| 
E|--3---3-3-3--1/3--1----------3---3-3-3--1/3--1--------| 
 
e|----------------------------------------| 
B|----------------------------------------| 
G|----------------------------------------| 
D|----------------------------------------| (4x) 
A|--11-(b9)7-5-3~-1-------------------------| 
E|----------------------------------------| 
 
e|----------------------------------------| 
B|----------------------------------------| 
G|---------------------3-3-3--------------| 
D|---5---5-5-5--3/5--3-3-3-3--------------| (8x) 
A|---5---5-5-5--3/5--3-1-1-1--------------| 
E|---3---3-3-3--1/3--1--------------------| 
 
e|----------------------------------------| 
B|----------------------------------------| 
G|-------5-(5)---3------------------------| 
D|--5----5-(5)---3---3-(3)----------------| (3x) 
A|--5----3-(3)---1---3-(3)----------------| 
E|--3----------------1-(1)----------------| 
 
e|----------------------------------------| 
B|----------------------------------------| 
G|----------------------------------------| 
D|----------------------------------------| 
A|--1-1-3-5-7-(b9)-11-(b9)7-5-3~-1------------| 
E|----------------------------------------| 
 
e|-----------------------------|----------| 
B|-----------------------------|----------| 
G|---------------------3-3-3---|----------| 
D|---5---5-5-5--3/5--3-3-3-3---|---5------| 
A|---5---5-5-5--3/5--3-1-1-1---|---5------| 
E|---3---3-3-3--1/3--1---------|---3------| 
 (7x) 
 
e|--------------|-------------------------| 
B|--------------|-------------------------| 
G|--------------|-------------------------| 
D|--------------|-------------------------| 
A|--1-1-3-5-7-(b9)|-11-(b9)7-5-3~-1-----------| 
E|--------------|-------------------------| 
                (6x) 
 
e|----------------------------------------| 
B|----------------------------------------| 
G|---------------------3-3-3--------------| 
D|---5---5-5-5--3/5--3-3-3-3--5-----------| 
A|---5---5-5-5--3/5--3-1-1-1--5-----------| 
E|---3---3-3-3--1/3--1--------3-----------| 
 
e|----------------------------------------| 
B|----------------------------------------| 
G|------3-(3)-----------------------3-(3)-| 
D|--5---3-(3)---3---2-(2)-------5---3-(3)-| 
A|--5---1-(1)---3---2-(2)---3X--5---1-(1)-| 
E|--3-----------1---0-(0)------ 3---------| 
 
e|------|-------|-------|-----------------| 
B|------|-------|-------|-----------------| 
G|------|-------|-------|-----------------| 
D|--7---|---5---|---3---|---2-------------| (4x) 
A|--7---|---5---|---3---|---2-------------| 
E|--5---|---3---|---1---|---0-------------| 
 (8x)   (8x)    (8x) 
 
Outro 
e|----------------------------------------| 
B|----------------------------------------| 
G|----------------------------------------| 
D|----------------------------------------| (7x) 
A|--11-(b9)7-5-3~-1-------------------------| 
E|----------------------------------------|		   
AcordesyTabs.com © 2008 Acordes y Tablaturas para guitarra. Tabs and Chords for guitar. Aviso Legal - Contacto
El uso de este sitio está sujeto a la aceptación de los términos y condiciones (15 usuarios online)