tablaturas, partituras y acordes para guitarra
Busca por banda/artista:
 
y/o título de la canción:
A B C D E F G H I J K L M N O P Q R S T U V W X Y Z 0 1 2 3 4 5 6 7 8 9 / Top 100 tabs
Categorías
Usuarios
usuario:
Darse de alta
password:
Artistas más visitados
Publicidad
TOP acordes y tablaturas de Kiss
:: Beth - Kiss


Gateway
de Kiss
Puntúa este acorde/tab:      
(0.7/5)
Reportar este acorde/tab
  Añadir a tus favoritos
  Imprimir
Tune down 1/2 step

(Intro)
Gb|-----------------------------------------------------|
Db|-----------------------------------------------------|
Ab|------------5-------3-3------------------------------|
Eb|---3---------------------3---------------------------|

Gb|-----------------------------------------------------|
Db|-------5--------5------------------------------------|  x2
Ab|---5-7------5-7-----7-6-5---3-3----------------------|
Eb|---------------------------------3-------------------|

Gb|----------------(b9)----------------(b9)-----------------|
Db|-5-6-7--7-10--7---7-10-7---7-10-7---7---3---5---7----|
Bb|-----------------------------------------------------|
Eb|-----------------------------------------------------|
           |------x2------|                             

Gb|-----------(b9)----------------(b9)----------------------|
Db|---7-10--7---7-10-7---7-10-7---7---------------------|
Bb|-----------------------------------3---5-------------|
Eb|-----------------------------------------------------|
      |------x2------|                                                    

Gb|-----------------------------------------------------|
Db|------------------------------------3----5-----------|
Bb|-------3---------------3-----------------------------|
Eb|--5--5---5-5-0-3--5--5---5-5--3-5--------------------|
     |-----x2-----|                                                    

Gb|-----------------------------------------------------|
Db|-----------------------------------------------------|
Bb|-------3---------------3------------3----5-----------|
Eb|--5--5---5-5-0-3--5--5---5-5--3-5--------------------|
     |-----x2-----|                                             

Gb|-----------------------------------------------------|
Db|-----------------------------------------------------|
Ab|------------5-------3-3------------------------------|
Eb|---3---------------------3---------------------------|

Gb|-----------------------------------------------------|
Db|-------5--------5------------------------------------|
Ab|---5-7------5-7-----7-6-5---3-3----------------------|
Eb|---------------------------------3-------------------|

Gb|----------------(b9)----------------(b9)-----------------|
Db|-5-6-7--7-10--7---7-10-7---7-10-7---7---3---5---7----|
Bb|-----------------------------------------------------|
Eb|-----------------------------------------------------|
           |------x2------|                             

Gb|-----------(b9)----------------(b9)----------------------|
Db|---7-10--7---7-10-7---7-10-7---7---------------------|
Bb|-----------------------------------3---5-------------|
Eb|-----------------------------------------------------|
      |------x2------|                                                    

Gb|-----------------------------------------------------|
Db|------------------------------------3----5-----------|
Bb|-------3---------------3-----------------------------|
Eb|--5--5---5-5-0-3--5--5---5-5--3-5--------------------|
     |-----x2-----|                                                    

Gb|-----------------------------------------------------|
Db|-----------------------------------------------------|
Bb|-------3---------------3------------3----5-----------|
Eb|--5--5---5-5-0-3--5--5---5-5--3-5--------------------|
     |-----x2-----|
    
Gb|-----------------------------------------------------|
Db|-----------------------------------------------------|
Ab|------------5-------3-3------------------------------|
Eb|---3---------------------3---------------------------|

Gb|-----------------------------------------------------|
Db|-------5--------5------------------------------------|  x2
Ab|---5-7------5-7-----7-6-5---3-3----------------------|
Eb|---------------------------------3-------------------|

(During Solo)
Gb|-------------------------5---3-----------------------|
Db|--------------------3-5--------5-3-------------------|
Ab|----------0-2-3---5----------------5--1--------------|
Eb|--3-4-5-----------------------------------1----------|
             |----------x3------------|     

Gb|-----------------------------------------------------|
Db|-----------------------------------------------------|
Ab|------------5-------3-3------------------------------|
Eb|---3---------------------3---------------------------|

Gb|-----------------------------------------------------|
Db|-------5--------5------------------------------------|  x2
Ab|---5-7------5-7-----7-6-5---3-3----------------------|
Eb|---------------------------------3-------------------|

Gb|-----------------------------------------------------|
Db|-----------------------------------------------------|
Ab|---1-------------------------------------------------|
Eb|--------1--------------------------------------------|

Gb|-----------------------------------------------------|
Db|------5------5------5--------------------------------|_
Ab|---------------------------0-1-----------------------| |
Eb|--3-3----3-3----3-3----3-3---------1-----------------| |
                                                          |_x3
Gb|-----------------------------------------------------| |
Db|------5------5------5------------5--3----------------| |
Ab|---------------------------0-1---------5-----5-3-----|_|
Eb|--3-3----3-3----3-3----3-3---------------1-------5---|
     |----------------------x2----------------------|

(Outro)
Gb|---6-3-5-3------------------------------------------|
Db|-------------5-3-5-3----------------------------------|
Ab|---------------------5--------------------------------|
Eb|-----------------------3-----------3------------------|		   
AcordesyTabs.com © 2008 Acordes y Tablaturas para guitarra. Tabs and Chords for guitar. Aviso Legal - Contacto
El uso de este sitio está sujeto a la aceptación de los términos y condiciones (21 usuarios online)