tablaturas, partituras y acordes para guitarra
Busca por banda/artista:
 
y/o título de la canción:
A B C D E F G H I J K L M N O P Q R S T U V W X Y Z 0 1 2 3 4 5 6 7 8 9 / Top 100 tabs
Categorías
Usuarios
usuario:
Darse de alta
password:
Artistas más visitados
Publicidad
TOP acordes y tablaturas de Kiss
:: Beth - Kiss


Estás en: Inicio > Letra K > Acordes y tablaturas de Kiss > I want you
I want you
de Kiss
Puntúa este acorde/tab:      
(0.7/5)
Reportar este acorde/tab
  Añadir a tus favoritos
  Imprimir
Eb Tuning

Key:
/    = slide up
    = slide down
b    = bend (whole step)
b^   = bend (1/2 step)
pb   = pre-bend
r    = release-bend
h^   = hammer-on
p^   = pull-off
~    = Vibrato
*    = Natural Harmonic
#(#) = Trill
**   = Artificial Harmonic
x    = Muted String (Palm Muting)
X    = Muted String (Fretboard Muting)

PLEASE RATE AND ENJOY!!!


Rhythm Fig. 1 

Eb|-------0---------0---------0------------------------|
Bb|-------5---------5---------5-----5------------------|
Gb|-----4---4-----4---4-----4---4-----4----------------|
Db|------------0------------------2--------------------|
Ab|--3-------------------------------------------------|
Eb|----------------------0-----------------------------|


Rhythm Fig. 2

Eb|----------------------------------------------------|
Bb|----------------------------------------------------|
Gb|---5-5-5-5--7-7-7-7---------------------------------|
Db|---5-5-5-5--7-7-7-7---------------------------------|
Ab|---3-3-3-3--5-5-5-5---------------------------------|
Eb|----------------------------------------------------|
      <--2x--> <--2x-->


Rhythm Fig. 3

Eb|----------------------------------------------------|
Bb|----------------------------------------------------|
Gb|--------------------5~------------2(0)--------------|
Db|--------2~----------5~-------2~---------2(0)--------|
Ab|----------------------------------------------------|
Eb|-0---0----0-0-5-6-7----0---0------------------------|


Eb|----------------------------------------------------|
Bb|----------------------------------------------------|
Gb|--------------------5~------------------------------|
Db|--------2~----------5~-------2~---2-0---------------|
Ab|--------------------------------------2-0-----------|
Eb|-0---0----0-0-5-6-7----0---0--------------3-2-------|


Rhythm Fig. 3a

Eb|----------------------------------------------------|
Bb|----------------------------------------------------|
Gb|--------------------5~------------2(0)--------------|
Db|--------2~----------5~-------2~--------2(0)---------|
Ab|----------------------------------------------------|
Eb|-0---0----0-0-5-6-7----0---0------------------------|

Eb|----------------------------------------------------|
Bb|----------------------------------------------------|
Gb|--------------------5~------------------------------|
Db|--------2~----------5~-------2~--2(0)---------------|
Ab|----------------------------------------------------|
Eb|-0---0----0-0-5-6-7----0---0------------------------|


Rhythm Fig. 3b

Eb|----------------------------------------------------|
Bb|----------------------------------------------------|
Gb|--------------------5~------------2(0)--------------|
Db|--------2~----------5~-------2~---------2(0)--------|
Ab|----------------------------------------------------|
Eb|-0---0----0-0-5-6-7----0---0------------------------|


Eb|----------------------------------------------------|
Bb|----------------------------------------------------|
Gb|--------------------5~-----------------------5~-----|
Db|--------2~----------5~-------2~--------------5~-----|
Ab|----------------------------------------------------|
Eb|-0---0----0-0-5-6-7----0---0-----0-0-5-6-7-7--------|


Rhythm Fig. 4

Eb|----------------------------------------------------|
Bb|----------------------------------------------------|
Gb|-----2------------(b9)-----------(b9)----2-5-4--2----4--|
Db|--5--2------------(b9)-----------(b9)-5--2-5-4--2-5--4--|
Ab|--5--0------------7------------7--5--0-3-2--0-5--2--|
Eb|--3------0-0-0-0--0---0-0-0-0--0--3-----------3-----|
     <--------------2x------------>                <8x>
    

Rhythm Fig. 4a

Eb|------------------12-----------12-------------------|
Bb|------------------15b~---------15b~-----------------|
Gb|----------------------------------------------------|
Db|----------------------------------------------------|
Ab|----------------------------------------------------|
Eb|----------------------------------------------------|
                     <-------2x------>

Rhythm Fig. 5

Eb|----------------------------------------------------|
Bb|----------------------------------------------------|
Gb|----------(b9)---------9/7----------(b9)-----7----------|
Db|----------(b9)---------9/7----------(b9)--7--7----------|
Ab|----------7----------7/5----------7---7--5----------|
Eb|--0-0-0-0-0--0-0-0-0------0-0-0-0-0---5-------------|
     <-------------------3x------------------>

Eb|----------------------------------------------------|
Bb|----------------------------------------------------|
Gb|----------(b9)---------9/7----------(b9)----------------|
Db|----------(b9)---------9/7----------(b9)----------------|
Ab|----------7----------7/5----------7-----------------|
Eb|--0-0-0-0-0--0-0-0-0------0-0-0-0-0-----------------|



Rhythm Fig. 5a

Eb|----------------------------------------------------|
Bb|----------------------------------------------------|
Gb|-----------------2-5-4------4-----------------------|
Db|-2-0----------5--2-5-4---5--4-----------------------|
Ab|-----2-0------5--0-3-2---5--2-----------------------|
Eb|----------3-2-3----------3--------------------------|


Solo 1


Eb|----------------------------------------------15b~--|
Bb|------------------------------------------12--------|
Gb|---14b~~--14-12-14-14b-r14p^12------12b^------------|
Db|--------------------------------14~-----------------|
Ab|----------------------------------------------------|
Eb|----------------------------------------------------|

Eb|-15-14-15-14-12-------------------------------------|
Bb|-----------------12-15-15b~~------------------------|
Gb|-----------------------------14b-14-12-11-(b9)7-7/9~--|
Db|----------------------------------------------------|
Ab|----------------------------------------------------|
Eb|----------------------------------------------------|


Solo 1a


Eb|---22------22-----22------22------------------------|
Bb|-------22b----22b----22b-----22b-20-----------------|
Gb|------------------------------------21~-------------|
Db|----------------------------------------------------|
Ab|----------------------------------------------------|
Eb|----------------------------------------------------|

Eb|----------------------------------------------------|
Bb|----------------------------------------------------|
Gb|-----------------------12-14-12-14b-r14p^12h^14~----|
Db|----------------12--14------------------------------|
Ab|--------12-13-14------------------------------------|
Eb|-12--15---------------------------------------------|

Eb|----------------------------------------------------|
Bb|-------------------15b~~--15-----------------------|
Gb|-14-12-14b-r14p^12----------------------------------|
Db|------------------------------14-12-----------------|
Ab|-----------------------------------14-12------------|
Eb|-----------------------------------------15-14-15---|


Eb|----17b~-17b-r17p^15--------------------------------|
Bb|-15------------------17~-17-15-17b-r17^15-17b~------|
Gb|----------------------------------------------------|
Db|----------------------------------------------------|
Ab|----------------------------------------------------|
Eb|----------------------------------------------------|


Eb|----------------------------------------------------|
Bb|--17b-r17p^15---------------------------------------|
Gb|-------------16-14-12-14p^12-----12--14b~-----------|
Db|------------------------------14--------------------|
Ab|----------------------------------------------------|
Eb|----------------------------------------------------|


Riff 1

Eb|---12--------15-----17------------------------------|
Bb|---15b~------18b~---20b~----------------------------|
Gb|----------------------------------------------------|
Db|----------------------------------------------------|
Ab|----------------------------------------------------|
Eb|----------------------------------------------------|


I WANT YOU

[Rhythm Fig. 1] (3x)
In the morning I raise my head
And I'm thinkin' of days gone by
And the thing I want out of life is

[Rhythm Fig. 2]


[Rhythm Fig. 3 w/Rhythm Fig. 4a]
I want you (I want you)
I want you (I want you)

[Rhythm Fig. 4 w/ Rhythm Fig. 4a]
You can run, you can hide
But you never get away
You can lie and deny
But you know you're gonna pay

[Rhythm Fig. 5]
Never loved, never thought you could
Treat you right, girl, you know I would
You can fight but tonight
There's nothin' you can do

[Rhythm Fig. 3]
I want you (I want you)
Baby, baby, babe, I want you (I want you)

[Rhythm Fig. 4 w/ Rhythm Fig. 4a]
You can walk in a haze
You can travel till you die
You can live in a dream
And your life will pass you by
Every day that you hesitate
You're never changin' the hands of fate
You can fight but tonight
There's nothing you can do

[Rhythm Fig. 3a]
I want you (I want you)
Baby, baby, babe I want you (I want you)

[Solo w/Rhythm Fig. 5 then Rhythm Fig. 5a]

[Rhythm Fig. 1] (3x)
In the morning I raise my head
And I'm thinkin' of days gone by
And the thing I want out of life is

[Rhythm Fig. 2] (w/ Flanger or Phaser)

[Rhythm Fig. 3b w/Rhythm Fig. 4a]
I want you (I want you)
Baby, baby, babe I want you (I want you)
[Rhythm Fig. 3b w/End Riff. 1]
Baby, baby, babe I want you (I want you)
Baby, baby, babe I want you (I want you)

[Rhythm Fig. 3b w/Riff .1] (Repeat Until Fade)
Baby, baby, babe I want you (I want you)
I want you (I want you)
I want you (I want you)
I want you (I want you)
I want you (I want you)
Ah (I want you) (I want you)		   
AcordesyTabs.com © 2008 Acordes y Tablaturas para guitarra. Tabs and Chords for guitar. Aviso Legal - Contacto
El uso de este sitio está sujeto a la aceptación de los términos y condiciones (28 usuarios online)