tablaturas, partituras y acordes para guitarra
Busca por banda/artista:
 
y/o título de la canción:
A B C D E F G H I J K L M N O P Q R S T U V W X Y Z 0 1 2 3 4 5 6 7 8 9 / Top 100 tabs
Categorías
Usuarios
usuario:
Darse de alta
password:
Artistas más visitados
Publicidad
TOP acordes y tablaturas de Kiss
:: Beth - Kiss


Estás en: Inicio > Letra K > Acordes y tablaturas de Kiss > Journey of 1000 years
Journey of 1000 years
de Kiss
Puntúa este acorde/tab:      
(0.9/5)
Reportar este acorde/tab
  Añadir a tus favoritos
  Imprimir
Standard tuning

Rhythm Fig. 1 (acoustic, staccato)

E|--0--0--0--0--0--0--0--0--0--0--0--0--0--0--0--0---------| 
B|--0--0--0--0--0--0--0--0--0--0--0--0--0--0--0--0---------| 
G|--0--0--0--0--0--0--0--0--0--0--0--0--0--0--0--0---------| 
D|--2--2--2--2--2--2--2--2--2--2--2--2--2--2--2--2---------| 
A|--2--2--2--2--2--2--2--2--2--2--2--2--2--2--2--2---------| 
E|--0--0--0--0--0--0--0--0--0--0--0--0--0--0--0--0---------| 


 

                                                                                     
E|--3--3--3--3--3--3--3--3--3--3--3--3--3--3--3--3---------|
B|--5--5--5--5--5--5--5--5--5--5--5--5--5--5--5--5---------|
G|--5--5--5--5--5--5--5--5--5--5--5--5--5--5--5--5---------|
D|--5--5--5--5--5--5--5--5--5--5--5--5--5--5--5--5---------|
A|--3--3--3--3--3--3--3--3--3--3--3--3--3--3--3--3---------|
E|---------------------------------------------------------|



Rhythm Fig. 2 (acoustic)
                                                                          
E|--0---0---0--0----0------0---0---0--0----0---------------| 
B|--0---0---0--0----0------0---0---0--0----0---------------| 
G|--0---0---0--0----0------0---0---0--0----0---------------| 
D|--2---2---2--2----2------2---2---2--2----2---------------| 
A|--2---2---2--2----2------2---2---2--2----2---------------| 
E|--0---0---0--0----0------0---0---0--0----0---------------| 


                                                                                   
E|--0---0---0--0----0------0---0---0--0----0---------------|
B|--1---1---1--1----1------1---1---1--1----1---------------|
G|--0---0---0--0----0------0---0---0--0----0---------------|
D|--2---2---2--2----2------2---2---2--2----2---------------|
A|--3---3---3--3----3------3---3---3--3----3---------------|
E|---------------------------------------------------------|



Rhythm Fig. 3 (semi-clean electric)
                                                                             
E|---------0-----------0-------------0-----------0---------| 
B|------------0-----------0-------------0-----------0------| 
G|---------------------------------------------------------| 
D|---------------------------------------------------------| 
A|-----------------------------------------0---------------| 
E|---0-----------2-------------3---------------------------| 


                                                                                    
E|--------0-----------0-------------0-----------0----------|
B|-----------0-----------0-------------0-----------0-------|
G|---------------------------------------------------------|
D|---------------------------------------------------------|
A|--3-----------5-------------7-----------(b9)---------------|
E|---------------------------------------------------------|



Rhythm Fig. 4
                                                                                      
E|--0------------------------------------------------------|
B|--0--------------------3---------------------------------|
G|--(b9)--------5----------0-----------7-------------------4-|
D|--(b9)--------5----------0-----------7----7--------4--7----|
A|--7---------3----------x-----------5-------5--6----------|
E|--0--------------------3---------------------------------|
			   Let ring - - - - - - >



Rhythm Fig. 5
                                                                                             
E|---------------------------------------------------------|
B|----------------------------3----------------------------|
G|-11(b9)(b9)---(b9)--7-5----5---0--------------------------4-|
D|----------------------------0-----------7--------4--7----|
A|-9-7-7----7---5-3----3---x-------5------5--6----------|
E|----------------------------3----------------------------|
			    Let ring - - - - - - >



Rhythm Fig. 6
                                                                             
E|--0------------------------------------------------------|
B|--0------------------------------------------------------|
G|--(b9)-----------------------------------------------------|
D|--(b9)-----------------------------------------------------|
A|--7------------------------------------------------------|
E|--0------------------------------------------------------|



Rhythm Fig. 7
                                                                                   
E|--0------------------------------------------------------|
B|--0------------------------------------------------------|
G|--(b9)-----------------------------5-------------7---------|
D|--(b9)-----------------------------5-------------7---------|
A|--7------------------------------3-------------5---------|
E|--0------------------------------------------------------|



Solo
                                                                             
E|-------------------------------------------------------------------|
B|------9h10-(b9)------------------------------------------------------|
G|---------------(b9)--------------------------------------------------|
D|--------------------(b9)---------------------------------------------|
A|--------------------------11~--------11----(b9)---7~--------5--7/-10-|
E|-------------------------------------------------------------------|


                                                                        
E|-------------------------------------------------------------------|
B|-------------------------9h10-(b9)-----------------------------------|
G|-----------------------------------(b9)----------(b9)------------------|
D|----------------------------------------(b9)-------------------------|
A|--9~------------------------------------------------------11----(b9)-|
E|-------------------------------------------------------------------|


                                                                                             
E|-------------------------------------------------------------------|
B|---------------------------------------------------(b9)---10----12~--|
G|----------------------------------------------(b9)-------------------|
D|-------------------------------------------------------------------|
A|--7~---------5--7/-10---12-----------------------------------------|
E|-------------------------------------------------------------------|


                                                                        
E|-------------------------------------------------------------------|
B|-----9h10-(b9)-------------------------------------------------------|
G|--------------(b9)---------------------------------------------------|
D|-------------------(b9)----------------------------------------------|
A|------------------------11~--------11----(b9)---7----------5--7/-10--| 
E|-------------------------------------------------------------------|


                                                                                    

E|-------------------------------------------------------------------|
B|-------------------------------------------------------------------|
G|-------------------------------------------------------------------|
D|-------------------------------------------------------------------|
A|--9~--------7~--------7~--------7~-------7--7--7--7--7--7---7~-----|
E|-------------------------------------------------------------------|
					      Feedback


E|-------------------------------------------------------------------|
B|-------------------------------------------------------------------|
G|---7(b9)----------------------------5----------------7--------------|
D|---7(b9)----------------------------5----------------7--------------|
A|-------------------------------------------------------------------|
E|-0-----------------------------------------------------------------|
         Manipulate toggle switch - - - - - - - - - - - - - - - - >





Journey of a 1,000 years

[Rhy. Fig 1]

[Rhy. Fig 1]
I know just where you come from
Where all tour yesterdays are gone

[Rhy. Fig 2]
And now you¥re done
But you¥ve only just begun
It¥s time you opened up the door

[Rhy. Fig 3]
And now it¥s all very clear
This journey of a 1,000 years

[Rhy. Fig 4]
Can you feel it coming
Can you hear the sound
Can you feel it coming
Or is it the roar of the crowd

Can you feel it coming
Can you hear it
Or is it the roar of the crowd

[Rhy. Fig 5]
Did you sleep without dreams
Did you fly without wings
Did you touch without feel
Where nothing is real

Did you feel it coming
Did you hear it
Or is it the roar of the crowd
[Rhy. Fig 6]

[Rhy. Fig 7]

[Solo over Rhy. Fig 7]


Key:
/    = slide up
    = slide down
b    = bend (whole step)
b^   = bend (1/2 step)
b^^  = bend (1 1/2 steps)
pb   = pre-bend
r    = release-bend
t    = tap with righthand finger
h    = hammer-on
p    = pull-off
~    = Vibrato
*    = Natural Harmonic
#(#) = Trill
**   = Artificial Harmonic
x    = Dead notes (no pitch)
P.M. = Palm mute (- -> underneath indicates which notes)
()  = Dive war
(/)  = Release war
Tp   = Tap wplectrum		   
AcordesyTabs.com © 2008 Acordes y Tablaturas para guitarra. Tabs and Chords for guitar. Aviso Legal - Contacto
El uso de este sitio está sujeto a la aceptación de los términos y condiciones (16 usuarios online)