tablaturas, partituras y acordes para guitarra
Busca por banda/artista:
 
y/o título de la canción:
A B C D E F G H I J K L M N O P Q R S T U V W X Y Z 0 1 2 3 4 5 6 7 8 9 / Top 100 tabs
Categorías
Usuarios
usuario:
Darse de alta
password:
Artistas más visitados
Publicidad
TOP acordes y tablaturas de Kiss
:: Beth - Kiss


Estás en: Inicio > Letra K > Acordes y tablaturas de Kiss > The king of the nighttime world
The king of the nighttime world
de Kiss
Puntúa este acorde/tab:      
(0.2/5)
Reportar este acorde/tab
  Añadir a tus favoritos
  Imprimir
Standard Tuning

(Intro)
G:---------|---------|
D:---------|---------|  x2  
A:2-------4|2-------4|
E:----2----|----2----|

G:---------|---------|
D:---------|---------|  x2
A:2--------|2--------|
E:----2---4|----4---2|

I'm the king. . . 
G:---------|---------|---------|---------|---------|---------|
D:---------|4-4-2-1--|---------|---------|2-2-0----|---------|  x2
A:4-4-2-1--|--------4|4---3---2|2-2-0----|------4-2|2-------4|
E:--------4|---------|---------|------4-2|---------|----2----|

G:---------|---------|---------|
D:----6----|---------|222-1----|
A:4-----6-4|---------|------4-2|
E:---------|4---3---2|---------|

G:---------|---------|222-1----|
D:----2-3-4|---------|------4-2|
A:4--------|----1---2|---------|
E:---------|2--------|---------|

G:---------|---------|---------|---------|---------|---------|
D:---------|4-4-2-1--|---------|---------|2-2-0----|---------|  x2
A:4-4-2-1--|--------4|4---3---2|2-2-0----|------4-2|2-------4|
E:--------4|---------|---------|------4-2|---------|----2----|

G:---------|---------|
D:---------|---------|  x2  
A:2-------4|2-------4|
E:----2----|----2----|

G:---------|---------|---------|---------|---------|---------|
D:---------|4-4-2-1--|---------|---------|2-2-0----|---------|  x1
A:4-4-2-1--|--------4|4---3---2|2-2-0----|------4-2|2-------4|
E:--------4|---------|---------|------4-2|---------|----2----|

G:---------|---------|---------|
D:----6----|---------|222-1----|
A:4-----6-4|---------|------4-2|
E:---------|4---3---2|---------|

G:---------|---------|222-1----|
D:----2-3-4|---------|------4-2|
A:4--------|----1---2|---------|
E:---------|2--------|---------|

G:---------|---------|
D:--------6|--------6|  x8
A:4---4----|4---4----|
E:---------|---------|

G:---------|---------|---------|---------|---------|---------|
D:---------|4-4-2-1--|---------|---------|2-2-0----|---------|  x2
A:4-4-2-1--|--------4|4---3---2|2-2-0----|------4-2|2-------4|
E:--------4|---------|---------|------4-2|---------|----2----|

G:---------|---------|6-8-8-(b9)9|8---6----|
D:---------|6-8-8-8-9|---------|--------9|
A:----6-7-9|---------|---------|---------|
E:7-(b9)-----|---------|---------|---------|

G:---------|---------|---------|---------|---------|---------|
D:---------|4-4-2-1--|---------|---------|2-2-0----|---------|  x2
A:4-4-2-1--|--------4|4---3---2|2-2-0----|------4-2|2-------4|
E:--------4|---------|---------|------4-2|---------|----2----|
|--------------Repeat this until song fades out--------------|		   
AcordesyTabs.com © 2008 Acordes y Tablaturas para guitarra. Tabs and Chords for guitar. Aviso Legal - Contacto
El uso de este sitio está sujeto a la aceptación de los términos y condiciones (33 usuarios online)