tablaturas, partituras y acordes para guitarra
Busca por banda/artista:
 
y/o título de la canción:
A B C D E F G H I J K L M N O P Q R S T U V W X Y Z 0 1 2 3 4 5 6 7 8 9 / Top 100 tabs
Categorías
Usuarios
usuario:
Darse de alta
password:
Artistas más visitados
Publicidad
TOP acordes y tablaturas de Kiss
:: Beth - Kiss


Estás en: Inicio > Letra K > Acordes y tablaturas de Kiss > Mr. speed
Mr. speed
de Kiss
Puntúa este acorde/tab:      
(0.2/5)
Reportar este acorde/tab
  Añadir a tus favoritos
  Imprimir
Eb Tuning

Key:
/    = slide up
    = slide down
b    = bend (whole step)
b^   = bend (1/2 step)
pb   = pre-bend
r    = release-bend
h^   = hammer-on
p^   = pull-off
~    = Vibrato
*    = Natural Harmonic
**   = Artficial Harmonic

Rhythm Fig. 1

Eb|----------------------------------------------------|
Bb|--------------12----11-(b9)-----------10---(b9)11-------|
Gb|---(b9)(b9)-11/13-------11-(b9)-7-7--9/11------(b9)11-------|
Db|---(b9)(b9)-------------------7-7-----------------------|
Ab|----------------------------------------------------|
Eb|----------------------------------------------------|
   <--------------------2x-----------------------------|


Eb|----------------------------------------------------|
Bb|----------------------------------------------------|
Gb|2-2-2-2-4b^4p^2~/-4-4-4-4-6b^6p^4~------------------|
Db|2-2-4-2-4b^4p^2~/-4-4-6-4-6b^6p^4~------------------|
Ab|0-0-0-0---------------------------------------------|
Eb|----------------------------------------------------|
   --------------------------------->
   
end. 1
   
Eb|----------------------------------------------------|
Bb|----------------------------------------------------|
Gb|--(b9)(b9)(b9)-(b9)(b9)-(b9)(b9)(b9)-(b9)11br11-----------------------|
Db|--(b9)(b9)11-(b9)11-(b9)(b9)11-(b9)11br11-----------------------|
Ab|----------------------------------------------------|
Eb|----------------------------------------------------|
     <-------------2x---------->

Rhythm Fig. 2
   
Eb|----------------------------------------------------|
Bb|------------------------------(b9)8-6-----------------|
Gb|-(b9)(b9)(b9)-(b9)(b9)-(b9)(b9)(b9)-(b9)4-4-6/8---8-6------(b9)(b9)(b9)-(b9)(b9)|
Db|-(b9)(b9)11-(b9)11-(b9)(b9)11-(b9)4-4----------------(b9)(b9)11-(b9)11|
Ab|----------------------------------------------------|
Eb|----------------------------------------------------|

Eb|-------------------------------------------------------------|
Bb|----------------------------------(b9)6-4----------------------|
Gb|-(b9)(b9)(b9)-(b9)11br11-(b9)(b9)(b9)-(b9)4-4-6/8---6-4--2-2-2-2-2-2-2-2-2---|
Db|-(b9)(b9)11-(b9)11br11-(b9)(b9)11-(b9)4-4------------2-2-4-2-4-2-2-4-2---|
Ab|-----------------------------------------0-0-0-0-0-0-0-0-0---|
Eb|-------------------------------------------------------------|

Rhythm Fig. 3

Eb|----------------------------------------------------|
Bb|----------12--------------(b9)------------------------|
Gb|-(b9)(b9)11/13---11-(b9)-4-4-6/8--6-4/6--(b9)---------------|
Db|-(b9)(b9)--------11-(b9)-4-4------6-4/6--(b9)---------------|
Ab|----------------------------------------------------|
Eb|----------------------------------------------------|

Eb|----------------------------------------------------|
Bb|----------12--------------(b9)------------------------|
Gb|-(b9)(b9)11/13---11-(b9)-4-4-6/8--6-4-2-2-2-2-2-2-2-2-2-2-|
Db|-(b9)(b9)--------11-(b9)-4-4------6-4-2-2-4-2-4-2-2-4-2-2-|
Ab|--------------------------------0-0-0-0-0-0-0-0-0-0-|
Eb|----------------------------------------------------|


Rhythm Fig. 4

Eb|----------------------------------------------------|
Bb|----------------------------------------------------|
Gb|-(b9)(b9)(b9)-(b9)7-7-7-7--2-2-2-2-4-4-4-4------------------|
Db|-(b9)(b9)11-(b9)7-7-(b9)7--2-2-4-2-4-4-6-4------------------|
Ab|-------------------0-0-0-0--------------------------|
Eb|----------------------------------------------------|


Solo Rhythm. (play as per recording)

Eb|----------------------------------------------------|
Bb|----------------------------------------------------|
Gb|--6--2--6--6--2--6--4-------------------------------|
Db|--6--2--6--6--2--6--4-------------------------------|
Ab|--4--0--4--4--0--4--2-------------------------------|
Eb|----------------------------------------------------|

Solo


Eb|----------------------------------------------------|
Bb|------------------------------------------12br12p^(b9)|
Gb|---pb11r-pb11r-pb11r-9h^11p^(b9)--------9~~-----------|
Db|---------------------------------(b9)11---------------|
Ab|------------------------------11--------------------|
Eb|----------------------------------------------------|

Eb|----------------(b9)(b9)-----(b9)----(b9)(b9)----(b9)-----(b9)(b9)(b9)|
Bb|-12b~~~~~~------(b9)(b9)-----(b9)----(b9)(b9)----(b9)-----(b9)(b9)(b9)|
Gb|------------11b-----11b----11b-----11b----11b-------|
Db|----------------------------------------------------|
Ab|----------------------------------------------------|
Eb|----------------------------------------------------|

Eb|----------------------------------------------------|
Bb|-12p^11p^(b9)12p^11p^(b9)-------------------------------|
Gb|-----------12p^11p^(b9)-11br11p^9h^11~~~~~~~~~--------|
Db|----------------------------------------------------|
Ab|----------------------------------------------------|
Eb|----------------------------------------------------|


p.s. play it loud.		   
AcordesyTabs.com © 2008 Acordes y Tablaturas para guitarra. Tabs and Chords for guitar. Aviso Legal - Contacto
El uso de este sitio está sujeto a la aceptación de los términos y condiciones (20 usuarios online)