tablaturas, partituras y acordes para guitarra
Busca por banda/artista:
 
y/o título de la canción:
A B C D E F G H I J K L M N O P Q R S T U V W X Y Z 0 1 2 3 4 5 6 7 8 9 / Top 100 tabs
Categorías
Usuarios
usuario:
Darse de alta
password:
Artistas más visitados
Publicidad
TOP acordes y tablaturas de Kiss
:: Beth - Kiss


Estás en: Inicio > Letra K > Acordes y tablaturas de Kiss > Do you love me
Do you love me
de Kiss
Puntúa este acorde/tab:      
(0.6/5)
Reportar este acorde/tab
  Añadir a tus favoritos
  Imprimir
Eb Tuning


Rhythm Fig. 1
                                      end 1.
Eb|----------------------------------|-----------------|
Bb|----------------------------------|-----------------|
Gb|--(b9)-----(b9)(b9)-----(b9)(b9)7~--(b9)(b9)----|-----------------|
Db|--7--(b9)--7-7--(b9)--7-7-7~--7-7--(b9)-|--7-/11-11-------|
Ab|--0--7---0-0--7---0-0-5~--0-0--7--|--(b9)(b9)-(b9)-------|
Eb|-----0--------0----------------0--|--0--------------|

Rhythm Fig. 2

Eb|----------------------------------------------------|
Bb|----------------------------------------------------|
Gb|----4-4--5-4-5-4-4-----4-4--5-4------2--3-2-3-2-----|
Db|-4--4-4--4-4-6-4-4--4--4-4--4-4------2--2-2-2-2-----|
Ab|-4--2-2--6-4-7-4-4--4--2-2--6-4------0--4-0-4-0-----|
Eb|-2------------------2-------------------------------|

Eb|----------------------------------------------------|
Bb|----------------------------------------------------|
Gb|----4-4--5-4-5-4-4-----4-4--5-4-5-4-----------------|
Db|----4-4--4-4-6-4-4--4--4-4--4-4-4-4-----------------|
Ab|----2-2--6-4-7-4-4--4--2-2--6-4-6-4-----------------|
Eb|--------------------2-------------------------------|

Riff 1. (Both Guitars)

Eb|----------------------------------------------------|
Bb|----------------------------------------------------|
Gb|--8~-6~-4~-6~-/8~-6~--8~-6~-4~-6~-/8~-9~------------|
Db|----------------------------------------------------|
Ab|----------------------------------------------------|
Eb|----------------------------------------------------|
     <-------3x------->

Riff 1a.

Eb|----------------------------------------------------|
Bb|----------------------------------------------------|
Gb|--10~-8~-6~-8~-/10~-8~--10~-8~-6~-8~----------------|
Db|--------------------------------------4-4-----------|
Ab|--------------------------------------4-4-----------|
Eb|--------------------------------------2-2-----------|


Riff 1b.

Eb|----------------------------------------------------|
Bb|----------------------------------------------------|
Gb|--6---------------------6---------------------------|
Db|--6---------------------6-------------4-4-----------|
Ab|--4---------------------4-------------4-4-----------|
Eb|--------------------------------------2-2-----------|

 
Riff 2.

Eb|----------------------------------------------------|
Bb|--17--16--14--12---15--14--12--10----17--16--14--12-|
Gb|----------------------------------------------------|
Db|--17--17--14--13---15--15--12--12----17--17--14--13-|
Ab|----------------------------------------------------|
Eb|----------------------------------------------------|
     <------2x----->

Key:
/    = slide up
    = slide down
b    = bend (whole step)
b^   = bend (1/2 step)
pb   = pre-bend
r    = release-bend
h^   = hammer-on
p^   = pull-off
~    = Vibrato
*    = Natural Harmonic
#(#) = Trill
**   = Artificial Harmonic
x    = Muted String (Palm Muting)
X    = Muted String (Fretboard Muting)		   
AcordesyTabs.com © 2008 Acordes y Tablaturas para guitarra. Tabs and Chords for guitar. Aviso Legal - Contacto
El uso de este sitio está sujeto a la aceptación de los términos y condiciones (34 usuarios online)