tablaturas, partituras y acordes para guitarra
Busca por banda/artista:
 
y/o título de la canción:
A B C D E F G H I J K L M N O P Q R S T U V W X Y Z 0 1 2 3 4 5 6 7 8 9 / Top 100 tabs
Categorías
Usuarios
usuario:
Darse de alta
password:
Artistas más visitados
Publicidad
TOP acordes y tablaturas de Metallica


Melbourne
de Metallica
Puntúa este acorde/tab:      
(0.1/5)
Reportar este acorde/tab
  Añadir a tus favoritos
  Imprimir
e|--------------------------------------------------------------------------|
b|--------------------------------------------------------------------------|
g|--------------------------------------------------------------------------|
D|--------------------------------------------------------------------------|
A|--------------------------------------------------------------------------|
E|--0--0--0--0--0--0--0--0--0--0--0--0--0--0--0--0--0--0--0--0--0--0--0--0--|
  
|-----------------------------|--------------------------|
|-----------------------------|--------------------------|
|-----------------------------|--------------------------|
|----------6--6--7--7--7s-(b9)--|--------------(b9)----------|
|--0s-7-7---------------------|--7~-------7-----7~-------|
|-----------------------------|--------0--------------0--|
  
-----------------------------|---------------------------|
-----------------------------|---------------------------|
-----------------------------|--------------7--9~--------|
----------6--6--7--7--7s-(b9)--|---------------------------|
--0s-7-7---------------------|--7~-------7-----------7S--|
-----------------------------|--------0------------------|
  
-----------------------------|--------------------------|
-----------------------------|--------------------------|
-----------------------------|--------------------------|
----------6--6--7--7--7s-(b9)--|--------------(b9)----------|
--0s-7-7---------------------|--7~-------7-----7~-------|
-----------------------------|--------0--------------0--|
   
-----------------------------|--------------------------|
-----------------------------|--------------------------|
-----------------------------|--------------7--9~-------|
----------6--6--7--7--7s-(b9)--|--------------------------|
--0s-7-7---------------------|--7~-------7--------------|
-----------------------------|--------0--------------0--|

----------------------------------------|---------------------------|
--9h-10p-(b9)(b9)---------------------------|---------------------------|
--(b9)-------(b9)-11--9h-11p-9S-7--(b9)-9~----|---------------------------|
----------------------------------------|---------------(b9)----------|
----------------------------------------|-------0s-7-7-----7~-------|
----------------------------------------|--0---------------------0--|

----------------------------------------|-------------------------|
--9h-10p-(b9)(b9)---------------------------|-------------------------|
--(b9)-------(b9)-11--9h-11p-9S-7--(b9)-9~----|-------------------------|
----------------------------------------|-------------(b9)----------|
----------------------------------------|----------7-----7~-------|
----------------------------------------|--0----0--------------0--|

-----------------------------|--------------------------|
-----------------------------|--------------------------|
-----------------------------|--------------------------|
----------6--6--7--7--7s-(b9)--|--------------(b9)----------|
--0s-7-7---------------------|--7~-------7-----7~-------|
-----------------------------|--------0--------------0--|

-----------------------------|--------------------------|
-----------------------------|--------------------------|
-----------------------------|--------------7--9~-------|
----------6--6--7--7--7s-(b9)--|--------------------------|
--0s-7-7---------------------|--7~-------7--------------|
-----------------------------|--------0--------------0--|
     
---------------------------------|-------------------------------|
--7h-8-7-------------------------|----------8p-7-5---------------|
--(b9)---(b9)-(b9)-7h-9p-7-7-----------|-------7----------7------------|
------------------------7--------|--5s-7---------------7--------|
---------------------------5~----|-------------------------3~----|
---------------------------------|-------------------------------|
   
-----------------------------|-------------------------------|
---------6p-5----------------|----------8p-7-5---------------|
--------------7--5-----------|-------7----------7------------|
------5-------------7--------|--5s-7---------------7--------|
--3/-------------------5~----|-------------------------3~----|
-----------------------------|-------------------------------|
 
------------------------------|--------------------------------|
---------6-5---5-6-5----------|----------8-7---7-10-7----------|
-------------7-------7--------|-------7------(b9)-------7--------|
------5-----------------------|--5s-7--------------------------|
--3/--------------------5~----|--------------------------3~----|
------------------------------|--------------------------------|
       
------------------------------|-----------------------------|
----------8p-7----------------|----------8--7--10--7--------|
-------7-------(b9)-7-----------|-------7--7------7-----------|
--5s-7---------------7--------|--5s-7-----------------------|
------------------------5~----|-----------------------3~----|
------------------------------|-----------------------------|

--------------------------------|------------------------------|
--------------------------------|------------------------------|
------------------------(b9)------|------------------------------|
-------5-------7--9s-11---------|-------6--7--7s-(b9)7--6--------|
--5s-7----7s-(b9)-----------------|--0s-7------------------7-----|
---------------------------0----|---------------------------0--|

-------------------------|------------------------------|
-------------------------|------------------------------|
--------------(b9)---------|------------------------------|
--(b9)-------------(b9)------|-------6--7--7s-(b9)7--6--------|
-----7~------------------|--0s-7------------------7-----|
-----------0--------0----|---------------------------0--|

-------------------------|------------------------------|
-------------------------|------------------------------|
--------------(b9)---------|------------------------------|
--(b9)-------------(b9)------|-------6--7--7s-(b9)7--6--------|
-----7~------------------|--0s-7------------------7-----|
-----------0--------0----|---------------------------0--|

-------------------------|------------------------------|
-------------------------|------------------------------|
-------------------------|------------------------------|
--(b9)----------(b9)---------|-------6--7--7s-(b9)7--6--------|
-----7~----------7-------|--0s-7------------------7-----|
-----------0--------0----|---------------------------0--|

-------------------------|-----------x----------|
-------------------------|-----------x----------|
--------------7--9~------|--L--------7--(b9)-(b9)---|
--(b9)---------------------|----------------------|
-----7~------------------|----------------------|
-----------0-------------|----------------------|

--------------------------------|------------------------------------|
--------------------------------|------------------------------------|
--7--(b9)-9s-11---(b9)-11--11s-14---|--11--14--14s-16---14--16--16s-1(b9)--|
--------------------------------|------------------------------------|
--------------------------------|------------------------------------|
--------------------------------|------------------------------------|

--------------------------------------------|
--------------------------------------------|
--16--1(b9)-19s-21---19s--16--1(b9)-16h-19p-16S-|
--------------------------------------------|
--------------------------------------------|
--------------------------------------------|

------------------------------------------------------|
------------------------------------------------------|
--14--16--14h-16p-14S-11--11h-14p-11S-(b9)-9h-11p-9S-7--|
------------------------------------------------------|
------------------------------------------------------|
------------------------------------------------------|

---------------------------------------|--------------------------|
---------------------------------------|--------------------------|
--7h-9p-7S-4--4h-7p-4S-2--4-2-0--2--0--|-----2--------------------|
---------------------------------------|--3-----2-----2-----------|
---------------------------------------|-----------3-----2-----2--|
---------------------------------------|--------------------3-----|

--------------------------|--12----7----5--------|
--------------------------|----------------------------|
--------------------------|----------------------------|
--------------------------|----------------------------|
--------2--------1--------|----------------------------|
--3--2-----2--1-----1--0--|----------------------------|		   
AcordesyTabs.com © 2008 Acordes y Tablaturas para guitarra. Tabs and Chords for guitar. Aviso Legal - Contacto
El uso de este sitio está sujeto a la aceptación de los términos y condiciones (59 usuarios online)