tablaturas, partituras y acordes para guitarra
Busca por banda/artista:
 
y/o título de la canción:
A B C D E F G H I J K L M N O P Q R S T U V W X Y Z 0 1 2 3 4 5 6 7 8 9 / Top 100 tabs
Categorías
Usuarios
usuario:
Darse de alta
password:
Artistas más visitados
Publicidad
TOP acordes y tablaturas de The strokes


Estás en: Inicio > Letra T > Acordes y tablaturas de The strokes > On the other side
On the other side
de The strokes
Puntúa este acorde/tab:      
(0.4/5)
Reportar este acorde/tab
  Añadir a tus favoritos
  Imprimir
Riff Intro
G|---------------------|---------------------|
D|---------------------|--8-8-8-8---8-8-8-8--|
A|--5-5-5-5---5-5-5-5--|---6-6-6-6---6-6-6-6-| x3
E|---3-3-3-3---3-3-3-3-|---------------------|

G|---------------------|---------------------|
D|---------------------|--8-8-8-8---8-8-5-5--|
A|--5-5-5-5---5-5-5-5--|---6-6-6-6---6-6-6-6-| 
E|---3-3-3-3---3-3-3-3-|---------------------|

Riff 1

G|--------------------------|--------------------------|
D|-8-888-888-888-888-8-8-8--|--------------------------|
A|------------------8-8-8-8-|-6-666-666-666-666-6-6-6--| x4
E|--------------------------|------------------6-6-6-6-|

Riff 2

G|--------------------------------------------------------------|
D|---------------------------------------------7-8-888-888-88/2-|
A|--------------------------------6-666-666-8-10----------------|
E|-6-666-666-5-6-7-8-888-888-5-7-8------------------------------|

G|-----------------------------------------------------|
D|---------------------------------------------7-8-----|
A|-1-111-111-1-0---------------0-3-333-3338-10----8/5--|
E|--------------1-3-333-333-3-1----------------------6-|

Riff Intro
G|---------------------|---------------------|
D|---------------------|--8-8-8-8---8-8-8-8--|
A|--5-5-5-5---5-5-5-5--|---6-6-6-6---6-6-6-6-| 
E|---3-3-3-3---3-3-3-3-|---------------------|

G|---------------------|---------------------|
D|---------------------|--8-8-8-8---8-8-5-5--|
A|--5-5-5-5---5-5-5-5--|---6-6-6-6---6-6-6-6-| 
E|---3-3-3-3---3-3-3-3-|---------------------|
Riff 1

G|--------------------------|--------------------------|
D|-8-888-888-888-888-8-8-8--|--------------------------|
A|------------------8-8-8-8-|-6-666-666-666-666-6-6-6--| x4
E|--------------------------|------------------6-6-6-6-|
 


Riff 2

G|---------------------------------------------------------------|
D|---------------------------------------------7-8-888-888-88/2--|
A|--------------------------------6-666-666-8-10-----------------|
E|-6-666-666-5-6-7-8-888-888-5-7-8-------------------------------|

G|-----------------------------------------------------|
D|---------------------------------------------7-8-----|
A|-1-111-111-1-0---------------0-3-333-3338-10---8/5---|
E|--------------1-3-333-333-3-1----------------------6-|

“Now you seem so far away”
G|---------------------÷---------------------|
D|---------------------÷--8-8-8-8---8-8-8-8--|
A|--5-5-5-5---5-5-5-5--÷---6-6-6-6---6-6-6-6-| 
E|---3-3-3-3---3-3-3-3-÷---------------------|

G|---------------------÷---------------------|
D|---------------------÷--8-8-8-8---8-8-5-5--|
A|--5-5-5-5---5-5-5-5--÷---6-6-6-6---6-6-6-6-|
E|---3-3-3-3---3-3-3-3-÷---------------------|

G|--------------------------|--------------------------|
D|-8-888-888-888-888-8-8-8--|--------------------------|
A|------------------8-8-8-8-|-6-666-666-666-666-6-6-6--| x4
E|--------------------------|------------------6-6-6-6-|
(Paradinha) 

G|---------------------------------------------------------------|
D|---------------------------------------------7-8-888-888-88/2--|
A|--------------------------------6-666-666-8-10-----------------|
E|-6-666-666-5-6-7-8-888-888-5-7-8-------------------------------|

G|----------------------------------------------------|
D|---------------------------------------------7-8----|
A|-1-111-111-1-0---------------0-3-333-3338-10---8/5--|
E|--------------1-3-333-333-3-1----------------------6|

Fim

G|--------------------------------------------------------------|
D|---------------------------------------------7-8-888-888-88/2-|
A|--------------------------------6-666-666-8-10----------------|
E|-6-666-666-5-6-7-8-888-888-5-7-8------------------------------|

G|-------------------------------------------------------|
D|-------------------------------------------------------|
A|-1-111-111-1-0---------------0-6~----3~----1~----------|
E|--------------1-3-333-333-3-1--------------------------|		   
AcordesyTabs.com © 2008 Acordes y Tablaturas para guitarra. Tabs and Chords for guitar. Aviso Legal - Contacto
El uso de este sitio está sujeto a la aceptación de los términos y condiciones (9 usuarios online)