tablaturas, partituras y acordes para guitarra
Busca por banda/artista:
 
y/o título de la canción:
A B C D E F G H I J K L M N O P Q R S T U V W X Y Z 0 1 2 3 4 5 6 7 8 9 / Top 100 tabs
Categorías
Usuarios
usuario:
Darse de alta
password:
Artistas más visitados
Publicidad
TOP acordes y tablaturas de 3 doors down


Estás en: Inicio > Letra 3 > Acordes y tablaturas de 3 doors down > Dangerous game
Dangerous game
de 3 doors down
Puntúa este acorde/tab:      
(0.3/5)
Reportar este acorde/tab
  Añadir a tus favoritos
  Imprimir
-Intro-

Gtr.1 (clean)
e|-5----------------------|-----------------------|-0-5-3--3/5--8-8-8-8/10-8---|
B|-5----------------------|-----------------------|-------------8-8-8-8----8---|
G|-5----5p4-----------4---|-----------------------|----------------------------|
D|-7-5------5---5-5h7---5-|------------------2--5-|----------------------------|
A|-7----------7-----------|-----3-3h5-5-3--5------|----------------------------|
E|-5----------------------|-3-5-------------------|----------------------------|

Gtr.2 (Clean)
e|(5)-(8)--(10)----(5)-------|-(8)--(10)--(5)------(8)-------(10)------(5)--------(8)---(10)-|
B|-5--(8)--(12)-----5--------|-(8)--(12)---5-------(8)-------(12)-------5---------(8)---(12)-|
G|-5---(b9)---12------5--------|--(b9)---12----5--------(b9)--------12--------5----------(b9)----12--|
D|-7---10---12------7--------|--10---12----7--------10--------12--------7----------10----12--|
A|-------------------------------------------------------------------------------------------|
E|-------------------------------------------------------------------------------------------|

Gtr.1 (Clean)
e|---8-----8-----8-|-7h8p7---------------|------------------------------------0----0------|
B|-----8-8---8-8---|-------10-8-8/10-10~-|------------------------------------------------|
G|-----------------|---------------------|------4---------5-----4----5-4--4/5--5/7---7(b9)-|
D|-----------------|---------------------|--5h7---5---5h7---5h7---5-----------------------|
A|-----------------|---------------------|------------------------------------------------|
E|-----------------|---------------------|------------------------------------------------|

Gtr.2 (Clean)
e|(5)-(8)--(10)----(5)-------|-(8)--(10)--(5)------(8)-------(10)------(5)--------(8)---(10)-|
B|-5--(8)--(12)-----5--------|-(8)--(12)---5-------(8)-------(12)-------5---------(8)---(12)-|
G|-5---(b9)---12------5--------|--(b9)---12----5--------(b9)--------12--------5----------(b9)----12--|
D|-7---10---12------7--------|--10---12----7--------10--------12--------7----------10----12--|
A|-------------------------------------------------------------------------------------------|
E|-------------------------------------------------------------------------------------------|

-Verso-

Gtr.1 (Clean)
e|-----------------|---------------------|-|
B|-----------------|--------------3------|-|
G|-2---------------|-----0---------------|-|
D|-2---------------|---2--------4--------|-|
A|-0---------------|-3--------5----------|-|
E|-----------------|---------------------|-|

Gtr.2 (Clean)
e|(5)--------------|-(8)-----(10)--------|-|
B|-5---------------|-(8)-----(12)--------|-|
G|-5---------------|--(b9)------12---------|-|
D|-7---------------|--10------12---------|-|
A|-----------------|---------------------|-|
E|-----------------|---------------------|-|

-Refrão-

As Duas Gtrs. (Distorção)
Parte 1:
      * *                * *                * *                * *      
e|------------------|------------------|------------------|------------------|
B|------------------|------------------|------------------|------------------|
G|----------7----7--|-5--5-5---7----7--|----------7----7--|-5--5-5---7----7--|
D|-7--7-7---7----7--|-5--5-5---7----7--|-7--7-7---7----7--|-5--5-5---7----7--|
A|-7--7-7---5----5--|-3--3-3---5----5--|-7--7-7---5----5--|-3--3-3---5----5--|
E|-5--5-5-----------|------------------|-5--5-5-----------|------------------|

      * *                * *                
e|------------------|------------------|---------------------|
B|------------------|------------------|---------------------|
G|----------7----7--|-5--5-5---7----7--|---------------------|
D|-7--7-7---7----7--|-5--5-5---7----7--|-7-------------------|
A|-7--7-7---5----5--|-3--3-3---5----5--|-7-let ring----------|
E|-5--5-5-----------|------------------|-5-------------------|

Então Parte 2:

      * *                        * *                        * *
e|--------------------------|--------------------------|--------------------------|------------------|
B|--------------------------|--------------------------|--------------------------|-1p0--------------|
G|--------------------------|--------------------------|--------------------------|-----0------------|
D|-7--7-7--5--x-x-x-x-x-x-x-|-7--7-7--5--x-x-x-x-x-x-x-|-7--7-7--5--x-x-x-x-x-x-x-|------------------|
A|-7--7-7--5--x-x-x-x-x-x-x-|-7--7-7--5--x-x-x-x-x-x-x-|-7--7-7--5--x-x-x-x-x-x-x-|-------3---0----|
E|-5--5-5--3--x-x-x-x-x-x-x-|-5--5-5--3--x-x-x-x-x-x-x-|-5--5-5--3--x-x-x-x-x-x-x-|-----------3------|

      * *                        * *                        * *
e|--------------------------|--------------------------|--------------------------|------------------|
B|--------------------------|--------------------------|--------------------------|-1p0--------------|
G|--------------------------|--------------------------|--------------------------|-----0------------|
D|-7--7-7--5--x-x-x-x-x-x-x-|-7--7-7--5--x-x-x-x-x-x-x-|-7--7-7--5--x-x-x-x-x-x-x-|------------------|
A|-7--7-7--5--x-x-x-x-x-x-x-|-7--7-7--5--x-x-x-x-x-x-x-|-7--7-7--5--x-x-x-x-x-x-x-|-------3---0----|
E|-5--5-5--3--x-x-x-x-x-x-x-|-5--5-5--3--x-x-x-x-x-x-x-|-5--5-5--3--x-x-x-x-x-x-x-|-----------3------|

-Bridge-

Gtr.(Distorção)
    * * * * * *  * * * * *   * * * * * *  * * * * *   * * * * * *  * * * * *   * * * * * *  *  *  

e|-------------------------|------------------------|------------------------|-----------------------|
B|-------------------------|------------------------|------------------------|-----------------------|
G|-------------------------|------------------------|------------------------|-----------------------|
D|-------------------------|------------------------|------------------------|-----------------------|
A|-------------------------|-3h5-5-5-5-5--3-5-3-5-3-|------------------------|-3h5-5-5-5-5--3-(5)-5b-|
E|--3h5-5-5-5-5--3-5-3-5-3-|------------------------|-3h5-5-5-5-5--3-5-3-5-3-|-----------------------|

    * * * * * *  * * * * *   * * * * * *  * * * * *   * * * * * *  * * * * *   * * * * * *  *  *
e|-------------------------|------------------------|------------------------|-----------------------|
B|-------------------------|------------------------|------------------------|-----------------------|
G|-------------------------|------------------------|------------------------|-----------------------|
D|-------------------------|------------------------|------------------------|-----------------------|
A|-------------------------|-3h5-5-5-5-5--3-5-3-5-3-|------------------------|-3h5-5-5-5-5--3-(5)-5b-|
E|--3h5-5-5-5-5--3-5-3-5-3-|------------------------|-3h5-5-5-5-5--3-5-3-5-3-|-----------------------|

-Solo-

Gtr.(Distorção)
             * * * * *  * * * *
e|------------------------------------------------------|--8-8-8-8-8h10-10-10-10-10-10p8-8-8-8-8-8h10-8-8-8h10-8--|
B|------------------------------3h5p3-------------------|--8-8-8-8-8-8--8--8--8--8--8--8-8-8-8-8-8-8--8-8-8-8--8--|
G|------------------------------------5-2--0-2--5p4-0-2-|---------------------------------------------------------|
D|-----------------0-2--------0-------------------------|---------------------------------------------------------|
A|--3b-0-----0-2-3------0-2-3---------------------------|---------------------------------------------------------|
E|------------------------------------------------------|---------------------------------------------------------|

e|-8h10-10-10-10-10p8-8-10p8--10p8----8---------------------------------|
B|-8-8--8--8--8--8--8-8-8--8-------10---10-8-8h10p8---8-----------------|
G|--------------------------------------------------(b9)--7-7h9p7----7----|
D|--------------------------------------------------------------10---7--|
A|----------------------------------------------------------------------|
E|----------------------------------------------------------------------|

Ordem da música:
Intro
Verso 8x
refrão
Verso 8x
refrão
Bridge
Solo
Parte 1 do refrão.

Chave da Tablatura:
b - bend
* - palm muting 
h - hammer on
p - pull of 
/ - slide up
 - slide down		   
AcordesyTabs.com © 2008 Acordes y Tablaturas para guitarra. Tabs and Chords for guitar. Aviso Legal - Contacto
El uso de este sitio está sujeto a la aceptación de los términos y condiciones (30 usuarios online)