tablaturas, partituras y acordes para guitarra
Busca por banda/artista:
 
y/o título de la canción:
A B C D E F G H I J K L M N O P Q R S T U V W X Y Z 0 1 2 3 4 5 6 7 8 9 / Top 100 tabs
Categorías
Usuarios
usuario:
Darse de alta
password:
Artistas más visitados
Publicidad
TOP acordes y tablaturas de Foo fighters


Estás en: Inicio > Letra F > Acordes y tablaturas de Foo fighters > Straneg things have happened
Straneg things have happened
de Foo fighters
Puntúa este acorde/tab:      
(0.8/5)
Reportar este acorde/tab
  Añadir a tus favoritos
  Imprimir
Main riff
e||----------------------------------------------------------------||
B||----------------------------------------------------------------||
G||------2---2-2-------2---2-2--------2---2-2----2--2--2--2--------||
D||------0---0-2----------------------0---0-2----0--0--0--2-----0--||
A||--2-2---2-----0-----0---0-2------2---2------2------------0h2----||
E||----------------2-2---2-----1-0---------------------------------||


Chorus
I mute the G string when playing the (2) in the chorus but you can add it if you like

Dave adds his pinky on the G string (2) at one point when playing the E at the end of each 
Chorus if you listen closely.
e||--0--|--0--|--0--|--0---|--2--|--0--|--0/0--|--0--|--0--|--0--||
B||--0--|--0--|--0--|--0---|--3--|--0--|--0/0--|--0--|--0--|--0--||
G||--4--|-(2)-|--4--|--1---|--2--|--6--|--5/4--|--1--|--2--|--1--||
D||--4--|--4--|--5--|--2---|--0--|--7--|--6/5--|--2--|--2--|--2--|| x2
A||--2--|--4--|--5--|--2---|-----|--4--|--3/2--|--2--|--2--|--2--||
E||-----|--2--|--3--|--0---|-----|-----|-------|--0--|--0--|--0--||
    x6    x6    x6    x6     x6    x6    x1      x1    x2    x6


Lead
e|------5------5-7------5-----4-----0--|
B|----3------3--------3-----3-----3----|
G|--4------4--------4-----4-----4------|
D|-------------------------------------|
A|-------------------------------------|
E|-------------------------------------|

e|------5------5-7------5-----4-----4~-5-7--|
B|----3------3--------3-----3-----3---------|
G|--4------4--------4-----4-----4-----------|
D|------------------------------------------|
A|------------------------------------------|
E|------------------------------------------|		   
AcordesyTabs.com © 2008 Acordes y Tablaturas para guitarra. Tabs and Chords for guitar. Aviso Legal - Contacto
El uso de este sitio está sujeto a la aceptación de los términos y condiciones (18 usuarios online)