tablaturas, partituras y acordes para guitarra
Busca por banda/artista:
 
y/o título de la canción:
A B C D E F G H I J K L M N O P Q R S T U V W X Y Z 0 1 2 3 4 5 6 7 8 9 / Top 100 tabs
Categorías
Usuarios
usuario:
Darse de alta
password:
Artistas más visitados
Publicidad
TOP acordes y tablaturas de Beatles


Estás en: Inicio > Letra B > Acordes y tablaturas de Beatles > Day Tripper Best
Day Tripper Best
de Beatles
Puntúa este acorde/tab:      
(0.3/5)
Reportar este acorde/tab
  Añadir a tus favoritos
  Imprimir
I think these arre right, if you find a mistake feel free to e-mail me at 

Kordellfan@aol.com.


Intro:
  E
e|---------------------------------------|
b|---------------------------------------|
g|---------------------------------------|
d|-------------2-0----4-------0-2--------|
a|----------2-------2-----2--------------|
e|--0--3-4-------------------------------|   5x

Verse:
  E
e|---------------------------------------|
b|---------------------------------------|
g|---------------------------------------|
d|-------------2-0----4-------0-2--------|
a|----------2-------2-----2--------------|
e|--0--3-4-------------------------------|   2x

  A
e|---------------------------------------|
b|---------------------------------------|
g|-------------2-0----4-------0-2--------|
d|----------2-------2-----2--------------|
a|--0--3-4-------------------------------|
e|---------------------------------------|   1x
  E
e|---------------------------------------|
b|---------------------------------------|
g|---------------------------------------|
d|-------------2-0----4-------0-2--------|
a|----------2-------2-----2--------------|
e|--0--3-4-------------------------------|   1x

            F#                        F#
She was a day tripper, one way ticket yeah!
          A    G#
It took me so long
           C#          B
to find out, and I found out. 

B chord instrumental:
  B
e|---------------------------------------|
b|---------------------2-----------------|
g|------------4--2----------2--4---------|
d|----0--1--4-------4-----4--------------|
a|--2------------------------------------|
e|---------------------------------------|    3x




Solo; (after B instru.)
e|--------------------------5--------------|
b|--------3------3---5--7--------7---5-----|
g|-4---4-----4-----------------------------|
d|-----------------------------------------|
a|-----------------------------------------|
e|-----------------------------------------|

e|-----------10------10---12-14-12---10------------------|
b|-12---12-------12--------------------------12----------|
g|-------------------------------------------------------|
d|-------------------------------------------------------|
a|-------------------------------------------------------|
e|-------------------------------------------------------|
  E
e|---------------------------------------|
b|---------------------------------------|
g|---------------------------------------|
d|-------------2-0----4-------0-2--------|
a|----------2-------2-----2--------------|
e|--0--3-4-------------------------------|   4x
  A
e|---------------------------------------|
b|---------------------------------------|
g|-------------2-0----4-------0-2--------|
d|----------2-------2-----2--------------|
a|--0--3-4-------------------------------|
e|---------------------------------------|   1x
  E
e|---------------------------------------|
b|---------------------------------------|
g|---------------------------------------|
d|-------------2-0----4-------0-2--------|
a|----------2-------2-----2--------------|
e|--0--3-4-------------------------------|   1x


Chords:

  F#     A     G#    C#        C#     B         B
|--2--|--5--|--4--|-----|   |--9---|-----|   |--7--|
|--2--|--5--|--4--|--6--|   |--9---|--4--|   |--7--|
|--3--|--6--|--5--|--6--|or |--10--|--4--|or |--8--| 
|--4--|--7--|--6--|--6--|   |--11--|--4--|   |--9--|
|--4--|--7--|--6--|--4--|   |--11--|--2--|   |--9--|
|--2--|--5--|--4--|-----|   |--9---|-----|   |--7--|
		   
AcordesyTabs.com © 2008 Acordes y Tablaturas para guitarra. Tabs and Chords for guitar. Aviso Legal - Contacto
El uso de este sitio está sujeto a la aceptación de los términos y condiciones (43 usuarios online)