tablaturas, partituras y acordes para guitarra
Busca por banda/artista:
 
y/o título de la canción:
A B C D E F G H I J K L M N O P Q R S T U V W X Y Z 0 1 2 3 4 5 6 7 8 9 / Top 100 tabs
Categorías
Usuarios
usuario:
Darse de alta
password:
Artistas más visitados
Publicidad
TOP acordes y tablaturas de Foo fighters


Come alive
de Foo fighters
Puntúa este acorde/tab:      
(0.1/5)
Reportar este acorde/tab
  Añadir a tus favoritos
  Imprimir
So, I've played with my guitar for a while and ended here... Dave uses a little trick to play this song.
Just tune your 1st string 1 to f#, and you'll be set to go... Check that out and tell me what you think!


Intro/Verse
f#||--------0---------------------------0--------------------||
b ||----------------------0---------------------------0------||
g ||--7-------7-----2-------2-----(b9)------(b9)----4-------4----||
d ||----7-------7-----2-------2-----(b9)------(b9)----4-------4--||
a ||---------------------------------------------------------||
e ||--7---7---------2---2---------(b9)--(b9)--------4---4--------||

f#||--------0---------------------------0-----------||
b ||----------------------0----------------------0--||
g ||--7-------7-----2-------2-----(b9)------(b9)----4---||
d ||----7-------7-----2-------2-----(b9)------(b9)------||
a ||------------------------------------------------||
e ||--7---7---------2---2---------(b9)--(b9)--------4---||


Chorus
f#||--------------------------||
b ||--------------------------||
g ||--4-4-4-4-6-6-6-6-8-8-8-8-||
d ||--5-5-5-5-7-7-7-7-(b9)(b9)(b9)(b9)||
a ||--5-5-5-5-7-7-7-7-(b9)(b9)(b9)(b9)||
e ||--3-3-3-3-5-5-5-5-7-7-7-7-||
"I lay there in the dark... I close my eyes"

[INTRO/VERSE]

[CHORUS]

f#||----------------------------------||
b ||----------------------------------||
g ||--11-11-11-11-10-10-10-10-8-8-8-8-||
d ||--12-12-12-12-11-11-11-11-(b9)(b9)(b9)(b9)||
a ||--12-12-12-12-11-11-11-11-(b9)(b9)(b9)(b9)||
e ||--10-10-10-10-(b9)-(b9)-(b9)-(b9)-7-7-7-7-||
    "Come alive, come alive, come alive..."

Harder Chorus - Rhythm
f#||--------------------------||
b ||--------------------------||
g ||--4-4-4-4-6-6-6-6-1-1-1-1-||
d ||--5-5-5-5-7-7-7-7-2-2-2-2-||
a ||--5-5-5-5-7-7-7-7-2-2-2-2-||
e ||--3-3-3-3-5-5-5-5-0-0-0-0-||
    "I lay there in the dark... I close my eyes"

Harder Chorus - Lead
e||---------------------------||
B||---------------------------||
G||---------------------------||
D||---------------------------||
A||-----------5b----------7b--||
E||--7-5-7-7------7-5-7-7-----||

Harder Chorus - Rhythm
f#||---------------------------------------------------------------||
b ||---------------------------------------------------------------||
g ||------------------1-1-1-1--11-11-11-11-10-10-10-10-(b9)-(b9)-(b9)-(b9)-||
d ||--5-5-5-5-4-4-4-4-2-2-2-2--12-12-12-12-11-11-11-11-10-10-10-10-||
a ||--5-5-5-5-4-4-4-4-2-2-2-2--12-12-12-12-11-11-11-11-10-10-10-10-||
e ||--3-3-3-3-2-2-2-2-0-0-0-0--10-10-10-10-(b9)-(b9)-(b9)-(b9)-8--8--8--8--||
    "Come alive, come alive, come alive..."


Bridge - Rhythm
f#||------------------||
b ||------------------||
g ||--8-8-8-8-1-1-1-1-||
d ||--(b9)(b9)(b9)(b9)2-2-2-2-||
a ||--(b9)(b9)(b9)(b9)2-2-2-2-||
e ||--7-7-7-7-0-0-0-0-||
    "Nothing..."

Bridge - Lead
e||---------------------------||
b||---------------------------||
g||-----------7b----------9b--||
d||--(b9)7-(b9)(b9)-----(b9)7-(b9)(b9)----||
a||---------------------------||
e||---------------------------||


Then repeats the Harder Chorus and ends up with

Outro - Rhythm
f#||----------------------||
b ||----------------------||
g ||--(b9)-(b9)-(b9)-(b9)-8-8-8-8-||
d ||--10-10-10-10-(b9)(b9)(b9)(b9)||
a ||--10-10-10-10-(b9)(b9)(b9)(b9)||
e ||--8--8--8--8--7-7-7-7-||

Outro - Lead
e||------------------||
b||--13-12-13-12-13--||
g||------------------||
d||------------------||
a||------------------||
e||------------------||



*Lyrics* (From the postboard fans)

Seems like only yesterday
Life belonged to runaways
Nothing here to see, no looking back
Every sound monotone
Every color monochrome
Life began to fade into the black

Such a simple animal
Sterilized with alcohol
I could hardly feel me anymore
Desperate meaningless
All filled up with emptiness
Felt like everything was said and done

I lay there in the dark I closed my eyes
You saved me the day you came alive

So I tried to find my way
Spinning I was in a daze
Burning like a flame behind my eyes
Drown it out drink it in
Crown the king of suffering
Prisoner slave to the disguise

Disappear the only thing
Bittersweet surrendering
Knew that it was time to say goodbye

I lay there in the dark I closed my eyes
You saved me the day you came alive
No reason left for me to survive
You saved me the day you came alive

Come alive (9 times)

I lay there in the dark I close my eyes
You saved me the day you came alive

Come alive (15 times)

Nothing to reveal?
Nothing more to live?
Come alive
You ? at me
Looking for free?
Come alive
I lay there in the dark
Open my eyes
You saved me the day you came alive

Come alive (7 times)		   
AcordesyTabs.com © 2008 Acordes y Tablaturas para guitarra. Tabs and Chords for guitar. Aviso Legal - Contacto
El uso de este sitio está sujeto a la aceptación de los términos y condiciones (34 usuarios online)