tablaturas, partituras y acordes para guitarra
Busca por banda/artista:
 
y/o título de la canción:
A B C D E F G H I J K L M N O P Q R S T U V W X Y Z 0 1 2 3 4 5 6 7 8 9 / Top 100 tabs
Categorías
Usuarios
usuario:
Darse de alta
password:
Artistas más visitados
Publicidad
TOP acordes y tablaturas de Foo fighters


If ever
de Foo fighters
Puntúa este acorde/tab:      
(0.5/5)
Reportar este acorde/tab
  Añadir a tus favoritos
  Imprimir
Intro

e||--3-3-2-2-0-||
B||--3-3-3-3-2-||
G||--0-0-2-2-2-||
D||--0-0-0-0-2-||
A||--2-2-----0-||
E||--3-3-------||

Verse

e||----------------------0----2/5--------3/2-----||
B||--------3/2-----------0----3/6------3-3---3---||
G||------2-2---2-------1-1----4/7----2---------2-||
D||----2---------2---2--------4/7--0-------------||
A||--0---------------------2--2/5----------------||
E||----------------0-----------------------------||

e||----------------------0----2/5--------1/0-----||
B||--------3/2-----------0----3/6------3-3---3---||
G||------2-2---2-------1-1----4/7----2---------2-||
D||----2---------2---2--------4/7--0-------------||
A||--0---------------------2--2/5----------------||
E||----------------0-----------------------------||

Chorus

e||--3-3-2-2-0-0-0000-0-0-3-3-2-2-0-0-||
B||--3-3-3-3-2-2-2323-2-2-3-3-3-3-0-0-||
G||--0-0-2-2-2-2-2222-2-2-0-0-2-2-1-1-||
D||--0-0-0-0-2-2-2222-2-2-0-0-0-0-2-2-||
A||--2-2-----0-0-0000-0-0-2-2-----2-2-||
E||--3-3------------------3-3-----0-0-||

e||--3-3-2-2-0-0-0000-0-0-3-3-2-2-0-0-0000-0-0-||
B||--3-3-3-3-2-2-2323-2-2-3-3-3-3-0-0-0000-0-0-||
G||--0-0-2-2-2-2-2222-2-2-0-0-2-2-1-1-1212-1-1-||
D||--0-0-0-0-2-2-2222-2-2-0-0-0-0-2-2-2222-2-2-||
A||--2-2-----0-0-0000-0-0-2-2-----2-2-2222-2-2-||
E||--3-3------------------3-3-----0-0-0000-0-0-||

In different parts of the chorus play with those same strings from A and E chords
more or less times, listen to the song to get them all :)


On that slow Bridge play more with the string used on the Verse, like this:

e||------------------------0----2/5--------3/2-----||
B||--------2/3/2-----------0----3/6------3-3---3---||
G||------2-2-----2-------1-1----4/7----2---------2-||
D||----2-----------2---2--------4/7--0-------------||
A||--0-----------------------2--2/5----------------||
E||------------------0-----------------------------||


Then repeats a Chorus and one last Verse and that's it!		   
AcordesyTabs.com © 2008 Acordes y Tablaturas para guitarra. Tabs and Chords for guitar. Aviso Legal - Contacto
El uso de este sitio está sujeto a la aceptación de los términos y condiciones (7 usuarios online)