tablaturas, partituras y acordes para guitarra
Busca por banda/artista:
 
y/o título de la canción:
A B C D E F G H I J K L M N O P Q R S T U V W X Y Z 0 1 2 3 4 5 6 7 8 9 / Top 100 tabs
Categorías
Usuarios
usuario:
Darse de alta
password:
Artistas más visitados
Publicidad
TOP acordes y tablaturas de Demon hunter


Undying
de Demon hunter
Puntúa este acorde/tab:      
(0.5/5)
Reportar este acorde/tab
  Añadir a tus favoritos
  Imprimir
INTRO

(Use Wah Wah Pressed up)
0:00
ethan - Lead
g#::-------------------------------------------------------------------::
c#::-------------------------------------------------------------------::
e ::-------------------------------------------------------------------::
b ::-------------------------------------------------------------------::
f#::-------3/6-----5/8---------8-4---------3-5-----3-5-----------------::
b ::-1-0-0-----0-0-----0-0-0-0-----0-1-0-0-----0-0-----0-0-0-0-0-3-2-0-:: X2

0:12
both guitars:
g#::-------------------------------------------------------------------::
c#::-------------------------------------------------------------------::
e ::-------5-8-----7-10--------106---------5-7-----5-7-----------------::
b ::-------x-x-----x-x---------x-x---------x-x-----x-x-----------------::
f#::-1-0-0-3/6-----5/8---------8-4-0-1-----3-5-----3-5-0-0-0-0-0-3-2-0-::
b ::-1-0-0-----0-0-----0000000-----0-1--0-0-----0-0----0-0-0-0-0-3-2-0-:: X2
             

Jon - bass
e ::-------------------------------------------------------------------::
b::-------------------------------------------------------------------::
f#::-------3/6-----5/8---------8-4-0-------3-5-----3-5-----------------::
b ::-1-0-0-----0-0-----0000000-------1-0-0-----0-0-----0-0-0-0-0-3-2-0-:: X2

0:24

Don - Rythem:
c#::-----------------------------------------------------------------::
g#::-----------------------------------------------------------------::
e ::-----------------------------------------------------------------::
b ::-----------------------------------------------------------------::
f#::-3-----3-----3-----3-----5---5---3-----3-----3-----5---5---1b----::
b ::---0-0---0-0---0-0---0-0---0---0---0-0---0-0---0-0---0---0-------::


ethan - Lead:
c#::-----------------------------------------------------------------::
g#::-----------------------------------------------------------------::
e ::-----------------------------------------------------------------::
b ::-----------------------------------------------------------------::
f#::-----------------------------------------------------------1*~---::
b ::-----------------------------------------------------------------::

VeRSe 1

0:32
Don - Rythem
"ever since the day that I was made..."
c#::--------------------------------------------------------------------::
g#::--------------------------------------------------------------------::
e ::--------------------------------------------------------------------::
b ::--------------------------------------------------------------------::
f#::--3-----3-----3-----3-----5---5---3-----3-----3-----5---5---1b------::
b ::----0-0---0-0---0-0---0-0---0---0---0-0---0-0---0-0---0---0----0----::X2

Jon - bass
(Let open notes ring; listen to song for the exact rythem)
e ::-------------------------------------------------------------------::
b ::-------------------------------------------------------------------::
f#::-------------------------------------------------------------------::
b ::-0-----------------------0-8-------------5---------7---------------::X2

0:45
both guitars:
"Nobody ever made a force that took a beating like me..."
c#::--------------------------------------------------------------------::
g#::--------------------------------------------------------------------::
e ::--------------------------------------------------------------------::
b ::--------------------------------------------------------------------::
f#::--3-----3-----3-----3-----5---5---3-----3-----3-----5---5---1b------::
b ::----0-0---0-0---0-0---0-0---0---0---0-0---0-0---0-0---0---0----0----::X2
        . .   . .   . .   . .   .   .   . .   . .   . .   .   .    .

Jon - bass
e ::-------------------------------------------------------------------::
b ::-------------------------------------------------------------------::
f#::-------------------------------------------------------------------::
b ::-0-0-0-0-0-0-0-0-0-0-0-0-0-8-8-8-8-8-8-8-8-8-8-5-5-5-5-7-7-7-7-7-7-:: X2

PRe cHORUS

0:57
"When this season ends..."
Don - Rythem
g#::-----------------------------------------------------------------::
c#::-----------------------------------------------------------------::
e ::-5--5--5--5--5--5--5--5--5--5--8--7--7--7--7--7--7--7--7--7--7--7::
b ::-x--x--x--x--x--x--x--x--x--x--x--x--x--x--x--x--x--x--x--x--x--x::
f#::-3--3--3--3--3--3--3--3--3--3--6--5--5--5--5--5--5--5--5--5--5--5::
b ::-----------------------------------------------------------------::

ethan - Lead
g#::-14----14----14----14----14----14----14----14----14----14----14--::
c#::----15----15----15----15----15----15----15----15----15----15---15::
e ::-----------------------------------------------------------------::
b ::-----------------------------------------------------------------::
f#::-----------------------------------------------------------------::
b ::-----------------------------------------------------------------::


cHORUS==


(I discovered it seems that they have both guitarists, and a overdubbed
guitar for the chorus. Here are all the parts:

1:11
"Heartbreak, And blinding lights will guide our way..."
ethan - Lead
g#::------------------------------------------------::
c#::------------------------------------------------::
e ::----------------5-5-5-5-5-5-5-8-7-7-7-7-7-7-7-7-::
b ::-3-3-3-1--------x-x-x-x-x-x-x-x-x-x-x-x-x-x-x-x-::
f#::-3-3-3-1--------3-3-3-3-3-3-3-6-5-5-5-5-5-5-5-5-::
b ::-3-3-3-1----------------------------------------:: X4

Don - Rythem
g#::----------------------------------------------::
c#::----------------------------------------------::
e ::----------------------------------------------::
b ::-3-3-3-1--------6-6-6-6-6-6-6-6-8-8-8-8-8-8-8-::
f#::-3-3-3-1--------6-6-6-6-6-6-6-6-8-8-8-8-8-8-8-::
b ::-3-3-3-1--------6-6-6-6-6-6-6-6-8-8-8-8-8-8-8-:: X4

Overdub guitar
(This guitar is quiet but if you listen closely you can hear it)
g#::----------------------------------------------------::
c#::----------------------------------------------------::
e ::-13-13-13-12----------------------------------------::
b ::-x--x--x--x---------6-6-6-6-6-6-6-6-8-8-8-8-8-8-8-8-::
f#::-11-11-11-10--------6-6-6-6-6-6-6-6-8-8-8-8-8-8-8-8-::
b ::--------------------6-6-6-6-6-6-6-6-8-8-8-8-8-8-8-8-:: X4

Jon - bass
e ::------------------------------------------------::
b ::------------------------------------------------::
f#::------------------------------------------------::
b ::-3-3-3-1--------6-6-6-6-6-6-6-6-8-8-8-8-8-8-8-8-:: X4

PRe VeRSe

1:26
both guitars:
g#::-------------------------------------------------------------------::
c#::-------------------------------------------------------------------::
e ::-------5-8-----7-10--------106---------5-7-----5-7-----------------::
b ::-------x-x-----x-x---------x-x---------x-x-----x-x-----------------::
f#::-1-0-0-3/6-----5/8---------8-4-0-1-----3-5-----3-5-0-0-0-0-0-3-2-0-::
b ::-1-0-0-----0-0-----0000000-----0-1-0-0-----0-0-----0-0-0-0-0-3-2-0-::
         
Jon - bass
e ::-------------------------------------------------------------------::
b ::-------------------------------------------------------------------::
f#::-------3/6-----5/8---------8-4---------3-5-----3-5-----------------::
b ::-1-0-0-----0-0-----0000000-----0-1-0-0-----0-0-----0-0-0-0-0-3-2-0-::

1:32
Don - Rythem
c#::--------------------------------------------------------------------::
g#::--------------------------------------------------------------------::
e ::--------------------------------------------------------------------::
b ::--------------------------------------------------------------------::
f#::--3-----3-----3-----3-----5---5---3-----3-----3-----5---5---1b------::
b ::----0-0---0-0---0-0---0-0---0---0---0-0---0-0---0-0---0---0----0----::

ethan - Lead
c#::-------------------------------------------------------------------::
g#::-------------------------------------------------------------------::
e ::-------------------------------------------------------------------::
b ::------------------------------------------------------------1*~----::
f#::---------------------------------------------------------1*~-------::
b ::-------------------------------------------------------------------::

VeRSe 2

1:39
Don - Rythem:
"Tearing through these days I find..."
c#::--------------------------------------------------------------------::
g#::--------------------------------------------------------------------::
e ::--------------------------------------------------------------------::
b ::--------------------------------------------------------------------::
f#::--3-----3-----3-----3-----5---5---3-----3-----3-----5---5---1b------::
b ::----0-0---0-0---0-0---0-0---0---0---0-0---0-0---0-0---0---0----0----::

Jon - bass
(listen to song for the exact rythem)
e ::-------------------------------------------------------------------::
b ::-------------------------------------------------------------------::
f#::-------------------------------------------------------------------::
b ::-0-----------------------0-8-------------5---------7---------------::

1:45
both guitars:
"No one can take away the blood that covers over my fall..."
c#::--------------------------------------------------------------------::
g#::--------------------------------------------------------------------::
e ::--------------------------------------------------------------------::
b ::--------------------------------------------------------------------::
f#::--3-----3-----3-----3-----5---5---3-----3-----3-----5---5---1b------::
b ::----0-0---0-0---0-0---0-0---0---0---0-0---0-0---0-0---0---0----0----::X2
        . .   . .   . .   . .   .   .   . .   . .   . .   .   .    .

Jon - bass
e ::-------------------------------------------------------------------::
b ::-------------------------------------------------------------------::
f#::-------------------------------------------------------------------::
b ::-0-0-0-0-0-0-0-0-0-0-0-0-0-8-8-8-8-8-8-8-8-8-8-5-5-5-5-7-7-7-7-7-7-:: X2

1:58
"When this season ends..."
PLAY PRe cHORUS

2:01
"Heartbreak, And blinding lights will guide our way..."
PLAY cHORUS

=========--\\\\\\\\\\\\\\\\
bRIDge==---:===============================================================
=========--////////////////////////////////////////////////////////////////

2:27
both guitars:
(Let ring through the whole measure)
c#::------------------------------------------------------::
g#::------------------------------------------------------::
e ::------------------------------------------------------::
b ::-0----------------------------------------------------::
f#::-0----------------------------------------------------::
b ::-0----------------------------------------------------::

2:31
Don - Rythem
(When you go to play this riff over play these 2 riffs displayed below
not just the small 11 noted riff)
g#::-----------------------------------------------------------------::
c#::-----------------------------------------------------------------::
e ::-----------------------------------------------------------------::
b ::-----------------------------------------------------------------::
f#::12-0-0-12-0-0-12-0-0-12-0-0-15-0-15-0-13-0-0-13-0-0-13-0-0-13-0-0::
b ::-----------------------------------------------------------------::

c#::------------::
g#::------------::
e ::------------::
b ::------------::
f#::-11-0-11-0--::
b ::------------:: X4

2:43
ethan - Lead
(The 3rd in on the above lead this below riff starts kicking in)
(Normaly the open notes would be wrighten like 00000-0-00 ect. but I
zoomed this riff in and thought it would be eaiser to show you)
"Were the ones who still remain when all is laid to waist..."
c#::------------------------------------------------::
g#::------------------------------------------------::
e ::------------------------------------------------::
b ::----------------------------------------1/6-1/6-::
f#::-0-0-0-0----0---0-0--0-0--0-0-0-0--0-0--1/6-1/6-::
b ::-0-0-0-0----0---0-0--0-0--0-0-0-0--0-0--1/6-1/6-:: X4
     . . . .    .   . .  . .  . . . .  . .

Jon - bass
e ::------------------------------------------------::
b ::------------------------------------------------::
f#::------------------------------------------------::
b ::-0-0-0-0----0---0-0--0-0--0-0-0-0--0-0--1/6-1/6-:: X4

2:55
both guitars:
"We are the ones..."
c#::------------------------------------------------::
g#::------------------------------------------------::
e ::------------------------------------------------::
b ::----------------------------------------1/6-1/6-::
f#::-0-0-0-0----0---0-0--0-0--0-0-0-0--0-0--1/6-1/6-::
b ::-0-0-0-0----0---0-0--0-0--0-0-0-0--0-0--1/6-1/6-:: X4
     . . . .    .   . .  . .  . . . .  . .

Jon - bass
e ::------------------------------------------------::
b ::------------------------------------------------::
f#::------------------------------------------------::
b ::-0-0-0-0----0---0-0--0-0--0-0-0-0--0-0--1/6-1/6-:: X4

3:08
Quietly you have 2 haprsichords in the background  playing this:
Harpsichord Rythem
"When This season ends..."
c#::-2---2---2---2---2---2---2---2---2---2---::
g#::---3---3---3---3---3---3---3---3---3---3-::
e ::-----------------------------------------::
b ::-----------------------------------------::
f#::-----------------------------------------::
b ::-----------------------------------------:: X2

Harpsichord Lead
c#::-----------------------------------------::
g#::----------------------4-3----------------::
e ::-5------------------5--------------------::
b ::-----------------------------------------::
f#::-----------------------------------------::
b ::-----------------------------------------:: X2

3:12
(The second the time throught the above riff play this)
(This Is a guitar with wah wah effect pressed up down then up,
hit the note then let it ring and slowly press the wah wah up)
ethan - Lead
"Un-dy-ing..."
      "One final..."
c#::---::
g#::---::
e ::---::
b ::---::
f#::-5-::
b ::---::

3:16
"Heartbeak, And blinding lights will guide our way
PLAY cHORUS

=========--\\\\\\\\\\\\\\\\
eNDINg==---:===============================================================
=========--////////////////////////////////////////////////////////////////

3:40
both guitars:
                                                            "Un-dy-ing..."
g#::-------------------------------------------------------------------::
c#::-------------------------------------------------------------------::
e ::-------5-8-----7-10--------106---------5-7-----5-7-----------------::
b ::-------x-x-----x-x---------x-x---------x-x-----x-x-----------------::
f#::-1-0-0-3/6-----5/8---------8-4-0-1-----3-5-----3-5-0-0-0-0-0-3-2-0-::
b ::-1-0-0-----0-0-----0000000-----0-1--0-0-----0-0----0-0-0-0-0-3-2-0-::
               . .     .......         . .     . .
Jon - bass
(Just Play this 3x(three times) after the last chorus)
e ::-------------------------------------------------------------------::
b ::-------------------------------------------------------------------::
f#::-------3/6-----5/8---------8-4---------3-5-----3-5-----------------::
b ::-1-0-0-----0-0-----0000000-----0-1--0-0-----0-0----0-0-0-0-0-3-2-0-:: X3

3:47
both guitars:
                                                                "Yea!..."
g#::-------------------------------------------------------------------::
c#::-------------------------------------------------------------------::
e ::-------5-8-----7-10--------106---5-----5-7-----5-7-----------------::
b ::-------x-x-----x-x---------x-x---x-----x-x-----x-x-----------------::
f#::-1-0-0-3/6-----5/8---------8-4-0-3-----3-5-----3-5-0-0-0-0-0-3-2-0-::
b ::-1-0-0-----0-0-----0000000-----0---0-0-----0-0-----0-0-0-0-0-3-2-0-::
               . .     .......         . .     . .
3:54
(Strum the chords fast, listen to song for the speed)
ethan - Lead
g#::----------------------------------------------------------------------::
c#::-15-15-15-15-15-15-15-15-15-15-15-15-15-15-15-15-16-16-16-16-16-16-16-::
e ::-x--x--x--x--x--x--x--x--x--x--x--x--x--x--x--x--x--x--x--x--x--x--x--::
b ::-12-12-12-12-12-12-12-12-12-12-12-12-12-12-12-12-13-13-13-13-13-13-13-::
f#::----------------------------------------------------------------------::
b ::----------------------------------------------------------------------::

ethan - Lead
g#::----------------------------------------------------------------------::
c#::-16-16-16-16-16-16-16-16-16-13-13-13-13-13-13-13-13-13-13-13-13-13-13-::
e ::-x--x--x--x--x--x--x--x--x--x--x--x--x--x--x--x--x--x--x--x--x--x--x--::
b ::-13-13-13-13-13-13-13-13-13-10-10-10-10-10-10-10-10-10-10-10-10-10-10-::
f#::----------------------------------------------------------------------::
b ::----------------------------------------------------------------------::

ethan - Lead
g#::-------------------------------------------------------::
c#::-13-13-16-16-16-16-16-16-16-16-16-16-16-16-16-16-16-16-::
e ::-x--x--x--x--x--x--x--x--x--x--x--x--x--x--x--x--x--x--::
b ::-10-10-13-13-13-13-13-13-13-13-13-13-13-13-13-13-13-13-::
f#::-------------------------------------------------------::
b ::-------------------------------------------------------::

Don - Rythem
g#::-------------------------------------------------------------------::
c#::-------------------------------------------------------------------::
e ::-------5-8-----7-10--------106---------5-7-----5-7-----------------::
b ::-------x-x-----x-x---------x-x---------x-x-----x-x-----------------::
f#::-1-0-0-3/6-----5/8---------8-4-0-1-----3-5-----3-5-0-0-0-0-0-3-2-0-::
b ::-1-0-0-----0-0-----0000000-----0-1-0-0-----0-0-----0-0-0-0-0-3-2-0-::

4:00
ethan - Lead
g#::--------------------------------------------------------------------::
c#::--------------------------------------------------------------------::
e ::--------------------------------------------------------------------::
b ::-13-0-0-0-0-0-10-0-13-0-0-0-0-0-12-0-15-0-0-0-0-0-0-0-0-15-0-11-0-0-::
f#::--------------------------------------------------------------------::
b ::--------------------------------------------------------------------::

ethan - Lead
g#::------------------------------------------::
c#::------------------------------------------::
e ::------------------------------------------::
b ::-0-12-0-0-0-0-0-10-0-12-0-0-0-0-0-10-0-12-::
f#::------------------------------------------::
b ::------------------------------------------::

Don - Rythem
g#::-----------------------------------------------------::
c#::-----------------------------------------------------::
e ::-------5-8-----7-10--------106---------5-7-----5-7---::
b ::-------x-x-----x-x---------x-x---------x-x-----x-x---::
f#::-1-0-0-3/6-----5/8---------8-4-0-1-----3-5-----3-5---::
b ::-1-0-0-----0-0-----0000000-----0-1--0-0-----0-0------::
               . .     .......          . .     . .

Jon - bass
e ::----------------------------------------------------::
b ::----------------------------------------------------::
f#::-------3/6-----5/8---------8-4---------3-5-----3-5--::
b ::-1-0-0-----0-0-----0000000-----0-1-0-0-----0-0------::

4:05
(fade out with these riffs)
Harpsichord Rythem
c#::-2---2---2---2---2---2---2---2---2---2---::
g#::---3---3---3---3---3---3---3---3---3---3-::
e ::-----------------------------------------::
b ::-----------------------------------------::
f#::-----------------------------------------::
b ::-----------------------------------------:: X4

Harpsichord Lead
c#::-----------------------------------------::
g#::----------------------4-3----------------::
e ::-5------------------5--------------------::
b ::-----------------------------------------::
f#::-----------------------------------------::
b ::-----------------------------------------:: X4

Song Lyrics:
Undying

ever since the day that I was made I've been deciding the end
And I was made of wood and stone and won't diminish or bend
So when the heavy hand of death is here to take me away
I'll be the solid grip of time, forever holding my stay
Nobody ever made a force that took a beating like me
I call the earth and every scum to come and try to fight me
cus when I made the choice to live beyond the dirt that we tread
I felt the curse of mortal limit fall before it was said

[Pre|-chorus:]
When this season ends

[chorus:]
One final heart-break
And blinding lights will guide our way
free us our blind state
They will call us by our name
Undying

Tearing through these days I find
The tolerance to strive and push on
I know what lies beyond this life for me is already won
No one can take away the blood that covers over my fall
Without the blood of perfect life
I know I'm nothing at all
So now I reign forever hallowed in eternity's hand
No man can shake me from the everlasting ground that I stand

[Pre|-chorus]

[chorus]

We are the ones who will still remain when all is laid to waste
We are the ones who, when angels cry, will see them face to face
We are the ones

[chorus]		   
AcordesyTabs.com © 2008 Acordes y Tablaturas para guitarra. Tabs and Chords for guitar. Aviso Legal - Contacto
El uso de este sitio está sujeto a la aceptación de los términos y condiciones (18 usuarios online)