tablaturas, partituras y acordes para guitarra
Busca por banda/artista:
 
y/o título de la canción:
A B C D E F G H I J K L M N O P Q R S T U V W X Y Z 0 1 2 3 4 5 6 7 8 9 / Top 100 tabs
Categorías
Usuarios
usuario:
Darse de alta
password:
Artistas más visitados
Publicidad
TOP acordes y tablaturas de Kiss
:: Beth - Kiss


Estás en: Inicio > Letra K > Acordes y tablaturas de Kiss > I walk alone
I walk alone
de Kiss
Puntúa este acorde/tab:      
(0.8/5)
Reportar este acorde/tab
  Añadir a tus favoritos
  Imprimir
Rhythm fig. 1 (clean electric, backwards)
                                                                         
Eb|-----12----------12----------12------------------------------------|
Bb|---------15----------15----------------10----------10----------10--|
Gb|-------------14----------14----------------12----------12----------|
Db|--0--------------------------------12----------12----------12------|
Ab|-------------------------------------------------------------------|
Db|-------------------------------------------------------------------|

Rhythm fig. 2
                                                                             
Eb|-------------------------------------------------------------------|
Bb|--3----------------------------------------------------------------|
Gb|--2----------------------------------------------------------------|
Db|--0----------------------------------------------------------------|
Ab|--0----------------------------------------------------------------|
Db|--0----------------------------------------------------------------|



Rhythm fig. 3
                                                                      
Eb|-------------------------------------------------------------------|
Bb|----------------------------------------6--------------------------|
Gb|----------------------------------------5--------------------------|
Db|----------------------------------------3--------------------------|
Ab|--0--0--0--0--0--0--0--0h2---3---2------3--------------------------|
Db|--0--0--0--0--0--0--0----------------5--3--------------------------|
    P.M.- - - - - - - - >



Rhythm fig. 4a
                                                                           
Eb|----------------------------------0--------------------------------|
Bb|----------------------------------3--------------------------------|
Gb|-/12---11---7--9/---11------------2---------/12---11---7--9/---11--|
Db|----------------------------------0--------------------------------|
Ab|-/10---(b9)---5--7/---(b9)-----0----------------/10---(b9)---5--7/---(b9)--|
Db|---------------------------0---------------------------------------|


                                                                                
Eb|-------------------------------------------------------------------|
Bb|-------------------------------------------------------------------|
Gb|--7-5------5/-7---------------------------------------------------|
Db|-------------------------------------------------------------------|
Ab|--5-3------3/-5---------------------------------------------------|
Db|-------------------------------------------------------------------|


Rhythm fig. 4b
                                                                                    
Eb|-------------------------------------------------------------------|
Bb|-------------------------------------------------------------------|
Gb|--10------------------(b9)-----------------12---11-------------------|
Db|-------------------------------------------------------------------|
Ab|--8-------------------7------------------10---(b9)---0---------------|
Db|---------------------------------------------------0---------------|


Rhythm fig. 4c
                                                                                    
Eb|-------------------------------------------------------------------|
Bb|-------------------------------------------------------------------|
Gb|--10------------------(b9)-------------------------------------------|
Db|-------------------------------------------------------------------|
Ab|--8-------------------7--------------------------------------------|
Db|-------------------------------------------------------------------|



Rhythm fig. 5a
                                                                                   
Eb|---------0---------------------------------------------------------|
Bb|---------3---------------------------------------------------------|
Gb|---------2---------------------------------------------------------|
Db|-------------------------------------------------------------------|
Ab|--3-------------------2------0----------------0--------------------|
Db|------------------------------------5------3p-0--------------------|



Rhythm fig. 5b

                                                                                 
Eb|---------0---------------------------------------------------------|
Bb|---------3---------------------------------------------------------|
Gb|---------2---------------------------------------------------------|
Db|-------------------------------------------------------------------|
Ab|--3-------------------2------0-------------------------------------|
Db|------------------------------------5------------------------------|



Rhythm fig. 6a
                                                                               
Eb|------------------------------------------------------------------|
Bb|------------------------------------------------------------------|
Gb|------------------------------------------------------------------|
Db|------------------------------------------------------------------|
Ab|-----------0--0--0--0--0--0--0--0--0--0--0--0--0------------------|
Db|--3p-0-----0--0--0--0--0--0--0--0--0--0--0--0--0------------------|
	  P.M.- - - - - - - - - - - - - - - - - >


Rhythm fig. 6b
                                                                      
Eb|------------------------------------------------------------------|
Bb|------------------------------------------------------------------|
Gb|------------------------------------------------------------------|
Db|------------------------------------------------------------------|
Ab|----------------2---3-----5---------------------------------------|
Db|--3--5--3--5---------------------0--------------------------------|



Rhythm fig. 7a
                                                                   
Eb|------------------------------------------------------------------|
Bb|------------------------------------------------------------------|
Gb|------------------------------------------------------------------|
Db|------------------------------------------------------------------|
Ab|----5-----------------------2---3---5-----------------------------|
Db|---------0--3--5--3--5---------------------0----------------------|







Rhythm fig. 7b

Eb|------------------------------------------------------------------|
Bb|------------------------------------------------------------------|
Gb|------------------------------------------0--------------5--------|
Db|-----------------------------------------------2---------5--------|
Ab|----5-----------------------2---3-------------------4----3--------|
Db|---------0--3--5--3--5--------------------------------------------|


                                                                                          
Eb|------------------------------------------------------------------|
Bb|------------------------------------------------------------------|
Gb|-5---5---5----3---3-3-3-3---3-3-3-3----3---3-3-3-3----3-3-3-3---2-|
Db|-5---5---5----3---3-3-3-3---3-3-3-3----3---3-3-3-3----3-3-3-3---2-|
Ab|-3---3---3----1---1-1-1-1---1-1-1-1----1---1-1-1-1----1-1-1-1---0-|
Db|------------------------------------------------------------------|



Rhythm fig. 8
                                                                           
Eb|------------------------------------------------------------------|
Bb|------------------------------------------------------------------|
Gb|----3-3-3-3---3-3-3-3---3------3-3-3-3---3-3-3-3---5--------------|
Db|----3-3-3-3---3-3-3-3---3------3-3-3-3---3-3-3-3---5--------------|
Ab|----1-1-1-1---1-1-1-1---1------1-1-1-1---1-1-1-1---3--------------|
Db|------------------------------------------------------------------|



Rhythm fig. 9
                                                                           
Eb|----------------------------------0-------------------------------|
Bb|----------------------------------3-------------------------------|
Gb|--12---11---7--9/---11------------2--------12---11---7--9/---11---|
Db|----------------------------------0-------------------------------|
Ab|--10---(b9)---5--7/---(b9)-----0---------------10---(b9)---5--7/---(b9)---|
Db|---------------------------0--------------------------------------|


                                                                    
Eb|------------------------------------------------------------------|
Bb|---------8-------------------8------------------------------------|
Gb|---------7-------------------7------------12---11---9/-11---------|
Db|--5------5------------5------5------------------------------------|
Ab|--5-------------------5-------------------10---(b9)---7/-(b9)---------|
Db|--5-------------------5-------------------------------------------|


 
Rhythm fig. 10
                                                
Eb|------------------------------------------------------------------|
Bb|------------------------------------------------------------------|
Gb|------------------------------------------------------------------|
Db|------------------------------------------------------------------|
Ab|-----/5-------/5--------3---2-------------------------------------|
Db|--0-------0---------------------5----3--5--3----------------------|


Solo 1
                                                                                
Eb|-----------------------------------------------------------------------|
Bb|------------------------------------------------------10-----10-----10-|
Gb|-----------10-12-12b12r10-12p10-----12b-10-12b-10-12b----12b----12b----|
Db|-----10-12------------------------x------------------------------------|
Ab|-----------------------------------------------------------------------|
Db|-----------------------------------------------------------------------|


                                                                                    
Eb|---------------------------------------------------13--15--15b-15r-13--|
Bb|-----10----------------13---15---15~-------15b-------------------------|
Gb|--12b----x-14b^^-------------------------------------------------------|
Db|-----------------------------------------------------------------------|
Ab|-----------------------------------------------------------------------|
Db|-----------------------------------------------------------------------|


                                                                                               
Eb|--15b-15r-13--13------12-----------------------------------------------|
Bb|------------------15-------14------------------------------------------|
Gb|---------------------------------14----------12----12--12-10b---10r----|
Db|---------------------------------------14------------------------------|
Ab|-----------------------------------------------------------------------|
Db|-----------------------------------------------------------------------|


                                                                                            
Eb|-----------------------------------------------------12**--10----------|
Bb|-----------------------------------------------------------------------|
Gb|--10------------10b---10r---10b---10r---(b9)-----------------------------|
Db|-----------------------------------------------------------------------|
Ab|---------------------------------------------------------------0-------|
Db|-----------------------------------------------------------------------|



Solo 2

Eb|-----------------------------------------------------------------------|
Bb|-----------------------------------------------------10h12p10-12h13p12-|
Gb|--7------------7~-7~----(b9)----(b9)9h10p(b9)10h12/14--12--------------------|
Db|---------------------------12------------------------------------------|
Ab|-----------------------------------------------------------------------|
Db|-----------------------------------------------------------------------|
     Fade in


                                                                          
Eb|---------------------------13--------------------/1(b9)--------17--17b---|
Bb|---13~--15--13-15-17p15p13----17-15-13---------------------------------|
Gb|---------------------------------------16p14p12------------------------|
Db|-----------------------------------------------------------------------|
Ab|-----------------------------------------------------------------------|
Db|-----------------------------------------------------------------------|


                                                                                   


Eb|-17b--17r-----------------15-17--15------------------------------------|
Bb|----------15--15---15-17b-----------17r----17-----15-------------------|
Gb|-----------------16---------------------14----14------14---------------|
Db|---------------------------------------------------------16p14
------|
Ab|------------------------------------------------------------------14-12|
Db|-----------------------------------------------------------------------|

                                                                              
Eb|-----------------------------------------------------------------------|
Bb|-----------------------------------------------------------------------|
Gb|-----------------------------------------------------------------------|
Db|-----12h14p12-14/16---14h16p14
-12-----------------------------------|
Ab|--14------------------------------------14---12--10/-12-9/-10-7-5--|
Db|-----------------------------------------------------------------------|
				pick only first note

                                                                                          
Eb|------------------------10---------------------------------10-------10-|
Bb|--------------------10-------------------------------12p10----10h12----|
Gb|--------9b-9r---9b-----------9r--------------7h(b9)----------------------|
Db|-----------------------------------5h7(b9)7h(b9)--------------------------|
Ab|--5**------------------------------------------------------------------|
Db|-----------------------------------------------------------------------|
   (tap 17th)

  
                                                                         
Eb|--12b----------12p10-14-12h14p12---15-14h15p14-17-15h17p15-15-17b------|
Bb|-----------------------------------------------------------------------|
Gb|-----------------------------------------------------------------------|
Db|-----------------------------------------------------------------------|
Ab|-----------------------------------------------------------------------|
Db|-----------------------------------------------------------------------|


                                  
Eb|--17----17-15-14-------------------------------------------------------|
Bb|-----15----------15-15-------------------------------------------------|
Gb|-----------------------------------------------------------------------|
Db|-----------------------------------------------------------------------|
Ab|-----------------------------------------------------------------------|
Db|-----------------------------------------------------------------------|


Solo 3a - left
                                                                                 
Eb|-----------------------------------------------------------------------|
Bb|----12b-------------------------15p13----13----------------------------|
Gb|----12b-------------------------------14----14p12---12-----------------|
Db|-------------------------------------------------------15--------------|
Ab|-----------------------------------------------------------------------|
Db|-----------------------------------------------------------------------|


                                                                                
Eb|-----------------------------------------------------15b------13----13-|
Bb|-18p15----18p15----18p15----18p15----15--18b-18~-----------------15----|
Gb|-------17-------17-------17-------17-----------------------------------|
Db|-----------------------------------------------------------------------|
Ab|-----------------------------------------------------------------------|
Db|-----------------------------------------------------------------------|


                                                                                   
Eb|-15b15rp13--13-15b15rp13---13-15b15rp13---13-15b15rp13-15b--15b--15b~-|
Bb|----------15------------15-------------15------------------------------|
Gb|-----------------------------------------------------------------------|
Db|-----------------------------------------------------------------------|
Ab|-----------------------------------------------------------------------|
Db|-----------------------------------------------------------------------|


                                                     
Eb|--15b--15---13~--------------------------------------------------------|
Bb|------------------15---------------------------------------------------|
Gb|----------------------14-----------------------------------------------|
Db|--------------------------15----12-------------------------------------|
Ab|-----------------------------------------------------------------------|
Db|-----------------------------------------------------------------------|



Solo 3b - right
                                                                      
Eb|----------------------10-----------10----------------------------------|
Bb|----12b------------------13p10--------13p10-----13-10h13p10------------|
Gb|----12b------------------------12b----------12b------------------------|
Db|-----------------------------------------------------------------------|
Ab|-----------------------------------------------------------------------|
Db|-----------------------------------------------------------------------|


                                                                             
Eb|---------------------------------------------------15b--------13----13-|
Bb|----13b-----13b~-------------------------------------------------15----|
Gb|----------------------------------10h12p10~----------------------------|
Db|-------------------------------12--------------------------------------|
Ab|-----------------------------------------------------------------------|
Db|-----------------------------------------------------------------------|


                                                                                   
Eb|--15b15p13---13-15b15p13----13-15b15p13---13-15b15p13--20b--20b--20b~-|
Bb|-----------15------------15-------------15-----------------------------|
Gb|-----------------------------------------------------------------------|
Db|-----------------------------------------------------------------------|
Ab|-----------------------------------------------------------------------|
Db|-----------------------------------------------------------------------|


                                                     
Eb|--20b--20---17~--------------------------------------------------------|
Bb|------------------20--18--18-------------------------------------------|
Gb|--------------------------------1(b9)------------------------------------|
Db|-----------------------------------------------------------------------|
Ab|-----------------------------------------------------------------------|
Db|-----------------------------------------------------------------------|




[Intro: Rhy. fig 1, fade in Rhy. fig 2]

[Rhy. fig 1]
I know deep inside of me
There's a place but it's not plain to see
I belong, where no one else can be

[Rhy. fig 1 & Rhy. fig 2]
I'm searching for myself again 
And here I'm all alone and when
I close my eyes, no one else can see
[Rhy. fig 3]

[Rhy. fig 4a]
I Walk Alone, can't you see?
I don't belong, Let me be
[Rhy. fig 4b]
Everything I dreamed of being is me
[Rhy. fig 5a]
And I got myself to lean on 
Got both my feet on the ground 

[Rhy. fig 1]
You don't know me, I don't know me
I can't see you, you can't see me
Close my eyes, leave the world behind

[Rhy. fig 1 & Rhy. fig 2]
So I got no heart, got no home 
I got no song where I belong
I don't worry, everything's just fine
[Rhy. fig 3]

[Rhy. fig 4a]
I Walk Alone, can't you see?
I don't belong, let me be
[Rhy. fig 4c]
Everything I dreamed of being

[Rhy. fig 4a]
And I don't belong, can't you see?
I Walk Alone, let me be
[Rhy. fig 4b]
Everything I dreamed of being is me
[Rhy. fig 5b]
And I got myself to lean on 
I got both my feet on the ground
[Rhy. fig 6a]

[Rhy. fig 6b]
[Solo 1] over
[Rhy. fig 7a] (3x)
[Rhy. fig 7b]

[Rhy. fig 1]
So I got no heart, and I got no home
And I got no song where I belong
I don't worry, everything's just

[Solo 2] over
[Rhy. fig 8]
[Rhy. fig 4a]
[Rhy. fig 9]

[Rhy. fig 5b]
I got myself to lean on 
Got both my feet on the ground 
[Rhy. fig 6a]
[Rhy. fig 5b]
And I got myself to lean on 
Got both my feet on the ground
[Rhy. fig 10] 

[Rhy. fig 10]
Cause I know deep inside of me 
There's a place but it's not plain to see
Where I belong, where no one else can be

And I'm searchin' for myself again
And here I'm all alone and when
I close my eyes, and no one else can see

[Solo 3a & 3b over Rhy. fig 10]

[Rhy. fig 1 & Rhy. fig 2]
[Rhy. fig 1] (repeat and fade out)		   
AcordesyTabs.com © 2008 Acordes y Tablaturas para guitarra. Tabs and Chords for guitar. Aviso Legal - Contacto
El uso de este sitio está sujeto a la aceptación de los términos y condiciones (35 usuarios online)